» » »

Ian Moore, Bar Line Tabs (ver.1)

Artists:  A B C D E F G H I J K L M N O P Q R S T U V W X Y Z # 

Bar Line Tabs (ver.1)

Ian Moore Tabs
 Rating:
4/5 (6 votes)
Bar Line lessons Tabs too difficult? Try these video lessons and learn fast
1
                "(9)


Aritst: Ian Moore
copyright 1995
on Capricorn Records
Transcribed and submitted by THE GROOVE DOG

Thought we could use a little more Austin artists 'round here.
Ian uses his old strat through a wah and some very heavy distortion.

b = bend up a half step
e--------------------------------------------------------------------------|
b--------------------------------------------------------------------------|
g--------------------------------------------------------------------------|
d-----------------5--------------------------------------------------------|
a-----7--5-----5-----7-----7--5-----------2--------1--------0------b-------|
E--0--------7-----------7--------7--0--2-----0--2-----0--2-----0--3--3-----|

that's how Ian plays it, but I play it a little differently; just feels a
little more natural.

e--------------------------------------------------------------------------|
b--------------------------------------------------------------------------|
g-----------------0--------------------------------------------------------|
d-----2--0-----0-----2-----2--0--------------------------------------------|
a-----------2-----------2--------2--------2--------1--------0------b-------|
E--0--------------------------------0--2-----0--2-----0--2-----0--3--3-----|

that's the riff he plays all through the tune. you can figure out the
little wah fills; they're pretty basic blues licks. he also plays the same
lick in A, so just move it up a string. during the verses it's lightly palm
muted.

lyrics:

hey look at me now
high wire trapeze, no net beneath
i'm the one that you should know
come let me grope you
just let me know
smile - collect my disease

just give me a smile
cause you sure are pretty
i feel so strong
you could be mine (whispered - wouldn't that be nice)
so have another drink (pause - ahhhhhhhhhh)
and i'll give you pity
just one more drink and you'll be mine
you'll be mine
smile - collect my disease
it does as it please

your flesh your lips your skin
the life you hold within
dizzy i'll twist your round
crazy i'll pull you down
so sweet i'll taste your sin
on down i'll pull you in
make you mine

that's it. if you don't own this album, change that.
	- TGD

"everything you ever heard about led zeppelin is true."
				- joe perry
"            
Submit corrections

comments powered by Disqus
↑ Back to top | Ian Moore Tabs for Bar Line. Lyrics for acoustic guitar and electric guitar. 1 Tablatures and chords are parodies/interpretations of the original songs. You may use it for private study, scholarship, research or language learning purposes only