» » »

Ian Moore, April Tabs (ver.1)

Artists:  A B C D E F G H I J K L M N O P Q R S T U V W X Y Z # 

April Tabs (ver.1)

Ian Moore Tabs
Rating:
4/5 (1 vote)
April lessons Tabs too difficult? Try these video lessons and learn fast
                :----0-----0------0------0------0----0---------[--x--------------:
:------0-----0------0------0------0-----0------[--3--------------:
:--7-----6------5------3------2-----1----------[--4--7x----------:
:----------------------------------------------[--4--------------:
:----------------------------------------------[--2--------------:
:----------------------------------------------[--x--------------:
Intro:           standard tuning

verse:

 well your smiles benn broken bye a hundred cloudy days
:--2------------------3--------------0-----0-----------2-|
:--3------------------0--------------1-----1-----------3-|
:--4--5x--------------0--5x----------2-3x--0--4x-------4-| 5 or 6 times
:--4------------------0--------------2-----2-----------4-| on the last chord
:--2------------------2--------------------3-----------2-| (listen to the song
:--x------------------3--------------------x-----------x-| for timing)


2nd time after G on verse add this
:-------------|
:-------3-----|
:---------4---|  Play 3x..hint just hold that be chord 2
:-------------|                                        3       3
:--0h2--------|                                        4         4
:-------------|                                        4
                                                      2  oh2
Chorus:                                               x
It's very simple just C, Am, G, D


Thats it......if you have corrections feel free to post them..Later Stu
            

comments powered by Disqus
↑ Back to top | Ian Moore Tabs for April. Lyrics for acoustic guitar and electric guitar. Tablatures and chords are parodies/interpretations of the original songs. You may use it for private study, scholarship, research or language learning purposes only