» » »

Ian Dury And The Blockheads, Hit Me With Your Rhythm Stick Bass tabs (ver.1)

Artists:  A B C D E F G H I J K L M N O P Q R S T U V W X Y Z # 

Hit Me With Your Rhythm Stick Bass tabs (ver.1)

Ian Dury And The Blockheads Tabs
Rating:
4/5 (3 votes)
Hit Me With Your Rhythm Stick lessons Tabs too difficult? Try these video lessons and learn fast
                Hit Me with Your Rhythm Stick

Ian Dury And The Blockheads

Intro/Bridge
G---------------------------------------------|
D----3--1-1-----------------------------------|
A------------3-3--1-1--3-3--1-1--3--1---------|
E-1------------------------------------4-1----|

Intro/Bridge Pt.2
G------------------------------8-8--------------|
D----3--1-1---------------6-6-------------------|
A------------3-3--1--8-8------------1-1---3-3---|
E-----------------------------------------------|

Verse
G-----10-8-8--------------------------------------------------------4---3----------------|
D------------10-10-8-8-6-6-----5-5-6-6---------------------6------6---6---6-4---4-4-5-6--|
A-1/8----------------------8-8---------8-8-6-6-----6-6-8-8---8-6-4------------6----------|
E----------------------------------------------8-8---------------------------------------|

Pre-Chorus           Chorus
G------------------|---------------------------------------------| x2
D------------------|------3-------5------7-----5-----------------|
A-5-6-6-6-3-5-6-7~-|---------------------------------------------|
E------------------|--1-1----3-3-----5-5----3-3-----1-1--1-1-----|

Chorus Pt.2
G--------------------------------------------------------------------------------------|
D------3-------5------6------7------8------7------6------5-----------------------------|
A------------------------------------------------------------------1-1---3-3-----------|
E--1-1----3-3----4-4----5-5----6-6----5-5----4-4----3-3--------------------------------|

Intro/Bridge
G---------------------------------------------|
D----3--1-1-----------------------------------|
A------------3-3--1-1--3-3--1-1--3--1---------|
E-1------------------------------------4-1----|

Outro
G-------------------------------8-8----------------|
D----3--1-1----------------6-6---------------------|
A------------3-3--1--8-8-------------1-1--3-3------|
E----------------------------------------------1-1-|

Sorry but I don't know the song order but if you know the song well, you should be able 
play it in the right order.
Any corrections will be gratefully accepted.

Enjoy :D
            

comments powered by Disqus
↑ Back to top | Ian Dury And The Blockheads Bass for Hit Me With Your Rhythm Stick. Lyrics for acoustic guitar and electric guitar. Tablatures and chords are parodies/interpretations of the original songs. You may use it for private study, scholarship, research or language learning purposes only