» » »

Illegal Attacks Chords (ver.1)

Artists:  A B C D E F G H I J K L M N O P Q R S T U V W X Y Z # 

Illegal Attacks Chords (ver.1)

Ian Brown
Rating:
0/5 (0 votes)

Hard to play? Try these video lessons and learn fast.
                ------------------------------------------------
------------------------------------------------


Tuning: Standard


Verse:

    Em         D          C    Am    Em
e|--0----------2----------0----0-----0----------|
B|--0----------3----------1----1-----0----------|
G|--0----------2----------0----2-----0----------|
D|--2----------0----------2----2-----2----------|
A|--2---------------------3----0-----2----------|
E|--0--------------------------------0----------|
 

Chorus:

    C          Am         Em         Em
e|--0----------0----------0----------0----------|
B|--1----------1----------0----------0----------|
G|--0----------2----------0----------0----------|
D|--2----------2----------2----------2----------|
A|--3----------0----------2----------2----------|
E|------------------------0----------0----------|
            
Hard to play? Try these video lessons and learn fast. | Correct




comments powered by Disqus
↑ Back to top | Tablatures and chords are parodies/interpretations of the original songs. You may use it for private study, scholarship, research or language learning purposes only