>
 >
Ice Cold Cube

Ice Cold Cube Guitar Tabs

Ian Brown - Ice Cold Cube chords, tabs, tablatures, lyrics

Guitar lessons | Add/correct | Request | Top 50 tabs Artists:  A B C D E F G H I J K L M N O P Q R S T U V W X Y Z 0-9

Ice Cold Cube Guitar Tabs – Ian Brown

CD, Sheet music, Poster

Do you like Ice Cold Cube? Share with your friends now
Tabs
IAN BROWN - ICE COLD CUBE

I think this is wrong but someone please edit it so we can have a good tab of a top tune

MAIN RIFF
   A         G F#  F                                            
e--5-5-5---5-3-2-1-1-1---1-2-3--5-5-5--5-3-2-1-1-1---1-2-3-|
B--5-5-5---5-3-2-1-1-1---1-2-3--5-5-5--5-3-2-1-1-1---1-2-3-|
G--6-6-6---6-4-3-2-2-2---2-3-4--6-6-6--6-4-3-2-2-2---2-3-4-|
D--7-7-7---7-5-4-3-3-3---3-4-5--7-7-7--7-5-4-3-3-3---3-4-5-|
A--7-7-7---7-5-4-3-3-3---3-4-5--7-7-7--7-5-4-3-3-3---3-4-5-|
E--5-5-5---5-3-2-1-1-1---1-2-3--5-5-5--5-3-2-1-1-1---1-2-3-|

FILL 1 (0:35)
e----------------------------------------------------------------------|
B----------------------------------------------------------------------|
G---6h7-6---6h7-6----5h7-5---5h7-5----6h7-6---6h7-6----5h7-5---5h7-5---|
D---------7-------7--------7-------7--------7-------7--------7-------7-|
A----------------------------------------------------------------------|
E----------------------------------------------------------------------|

FILL 2  (1:02)
e---------------------------------|
B-------------------------------3-|
G--0h2------------2--5--3-----3---|
D-------3-3-3---5----------5------|
A---------------------------------|
E---------------------------------|

FILL 3 (1:19)
e-----------------------------------------|
B-----------------------1h3p1---------3---|
G---------------------2-------2-----4---4-|
D-------------------3------------/5-------|
A-------0-0h3p0---------------------------|
E--3-3----------3-1-----------------------|

FILL 4 (2:28)
This is a cool little fill, but you have to play it with
a weird reverbed flange/wah effect.
e-------------------------------------------------------------------------|
B-------------------------------------------------------------------------|
G-----10-----------10-----------10------------------------12-14p12----12b-|
D-----10--12p10----12p10h12-----10-12-12-12p10----10---14----------14-----|
A--12-----------12-----------12----------------12-------------------------|
E-------------------------------------------------------------------------|

SOLO
This solo isn't really played as one long piece, but rather in parts with a little
fill in between (FILL3 I think). So I have put the solos into parts. Some of it is
missing because it is simply too distorted or noisy to pick out. 

PART 1 (3:33)
e--------------------------------------------------|
B--13----------------------------------------------|
G-----12-10h12-------------------------10h12-------|
D--------------12----10-12p10----10h12-------10-10-|
A-----------------12----------12-------------------|
E--------------------------------------------------|

PART 2 (4:08)
e------12-----12-----12-----12-----12-----15---------------|
B--15b----15b----15b----15b----15b----15b----13-15b-13-15b-|
G----------------------------------------------------------|
D----------------------------------------------------------|
A----------------------------------------------------------|
E----------------------------------------------------------|

PART 3 (4:18)
e--/15b-15b-15b-15b-15b-15b-15b-----|
B-----------------------------------|
G-------------------------------\7b-|
D-----------------------------------|
A-----------------------------------|
E-----------------------------------|

PART 4 (4:29)
e----------------------------------------------|
B--14\--14\------------------------------------|
G--14\--14\--------14---16-16b-14----------14b-|
D------------14h16----------------16-14h16-----|
A----------------------------------------------|
E----------------------------------------------|

PART 5 (4:40)
e-----------------------------------------------------------------------------|
B-----------------------------------------------------------------------------|
G--------0h2p0-0h2p0-------0h2p0-0h2p0-------0h2p0-0h2p0--5-7p5---5-7b-5-7b-5-|
D--0h2p0-------------0h2p0-------------0h2p0--------------------7-------------|
A-----------------------------------------------------------------------------|
E-----------------------------------------------------------------------------|

PART 6 (5:02)
e----------------------------------------------------------------12-13-15-15b-15b--|
B-----14-15-17--14-15-17--14-15-17--14-15-17--14-15-17--14-15-17-------------------|
G--16------------------------------------------------------------------------------|
D----------------------------------------------------------------------------------|
A----------------------------------------------------------------------------------|
E----------------------------------------------------------------------------------|

PART 7 (5:12)
e--20b-20b-20p17-----20b-20b-|
B----------------19----------|
G----------------------------|
D----------------------------|
A----------------------------|
E----------------------------|

PART 8 (5:24)
e------------------------------------------------------------------------------|
B------------------------------------------------------------------------------|
G-----10----10--------------12------------------10-10--------------------------|
D--12----12----12-12p10--------10---12p10----10-10-10-12p10----10-12-12b-10----|
A-----------------------12----------------12----------------12--------------12-|
E------------------------------------------------------------------------------|





Comments


Popular Ian Brown tabs & chords
Sunshine Chords
The Sweet Fantastic Chords
Time Is My Everything 1 Chords
Corpses In Their Mouths Tabs
F.E.A.R Tabs
Golden Gaze Intro Tabs
My Star Tabs
Billy Jean Ukulele
Golden Gaze Ukulele
Illegal Attacks Ukulele


Song lyrics



↑ Back to top | Tablatures and chords are parodies/interpretations of the original songs. You may use it for private study, scholarship, research or language learning purposes only
© 2014 AZChords.com Contact us | Privacy policy | DMCA | Add/correct tabs | Request tabs | Top 50 tabs