» » »

Iamx, The Negative Sex Tabs (ver.1)

Artists:  A B C D E F G H I J K L M N O P Q R S T U V W X Y Z # 

The Negative Sex Tabs (ver.1)

Iamx Tabs
Rating:
0/5 (0 votes)
The Negative Sex lessons Tabs too difficult? Try these video lessons and learn fast
                -------------------------------------------------------------------------------
-------------------------------------------------------------------------------

Tuning: Standart EBGDAE
Intro/Solo

e|-8-8-8-8--8-8-8--8-8-8-8-10-10-8-8-7-7-7-7--7-7-7-10-10-10-10-10-10-8-10---|
B|---------------------------------------------------------------------------|
G|---------------------------------------------------------------------------|
D|---------------------------------------------------------------------------|
A|---------------------------------------------------------------------------|
E|---------------------------------------------------------------------------|


e|-11-11-11-11--11-11-11-11-13-13br13-11-11-11-11-10-10-10-10--7-7-7-7-7h8p7-|
B|---------------------------------------------------------------------------|
G|---------------------------------------------------------------------------|
D|---------------------------------------------------------------------------|
A|---------------------------------------------------------------------------|
E|---------------------------------------------------------------------------|
 Chorus (2)
e|---------------------------------------------------------------------------|
B|---------------------------------------------------------------------------|
G|------------------9-9-9-9-9-9-9-9--------------------8-8-8-8-8-8-8-8--(2)--|
D|-6-6-6-6-6-6-6-6--9-9-9-9-9-9-9-9---5-5-5-5-5-5-5-5--8-8-8-8-8-8-8-8-------|
A|-6-6-6-6-6-6-6-6--7-7-7-7-7-7-7-7---5-5-5-5-5-5-5-5--6-6-6-6-6-6-6-6-------|
E|-4-4-4-4-4-4-4-4--------------------3-3-3-3-3-3-3-3------------------------|


************************************

| /   slide up
| \   slide down
| h   hammer-on
| p   pull-off
| ~   vibrato
| +   harmonic
| x   Mute note
| b   Bend
| pb  Pre-bend
| br  Bend release
| pbr Pre-bend release
| brb Bend release bend

************************************
            
Submit corrections

comments powered by Disqus
↑ Back to top | Iamx Tabs for The Negative Sex. Lyrics for acoustic guitar and electric guitar. Tablatures and chords are parodies/interpretations of the original songs. You may use it for private study, scholarship, research or language learning purposes only