» » »

Iamx, Tear Garden Tabs (ver.1)

Artists:  A B C D E F G H I J K L M N O P Q R S T U V W X Y Z # 

Tear Garden Tabs (ver.1)

Iamx Tabs
 Rating:
4/5 (4 votes)
Tear Garden lessons Tabs too difficult? Try these video lessons and learn fast
1
                uhhhhhh...first tab. oh, sh*t...

great song
IAMX - Tear Garden

dressing room. It was hard to decipher, but i've pretty much got the sound nailed. Hope you enjoy.

Capo on 3
Standard Tuning
Chords are relative to Capo

Intro/Verse

e ---0---0---0---0---0------0---0----------------------|
b ---5---4---3---2---1------1---1----------------------|
g ---0---0---0---0---0------0---0----------------------|
d ---x---x---x---x---x------0---0----------------------|
a ---7---6---5---4---3------x---x----------------------|
E ---x---x---x---x---x------3---2----------------------|

Note: the first four chords are for about 4 measures and then the fifth is for 8, 
followed by the last two which are for about 4 measures apiece.

Chorus

e ---x---x----0---0-----------|
b ---x---x----1---1-----------|
g ---x---x----0---0-----------|
d ---7---x----0---0-----------|
a ---7---11---x---x-----------|
E ---5---9----3---2-----------|

I saw bright open common sense
I do evil things and evil things return
And I'm praying on, I'm praying for me

You can't hide, I remove from you
Every tiny strength in everything you do
And I'll kick you down
And break you with tender touch

And then the tears cried in the tear garden
Will be for life
And then the tears cried in the tear garden
Will be for life

In the west they have made a plague
We have built the ship and sailed it to our veins
God forbid, anything should break that chain

At our road we connected through
The biology of universal cruelty
Send me home, return me to a lonely world

And then the tears cried in the tear garden
Will be for life
And then the tears cried in the tear garden
Will be for life



---hope ya'll enjoy-------
            
Submit corrections

comments powered by Disqus
↑ Back to top | Iamx Tabs for Tear Garden. Lyrics for acoustic guitar and electric guitar. 1 Tablatures and chords are parodies/interpretations of the original songs. You may use it for private study, scholarship, research or language learning purposes only