» » »

Symphony Tabs (ver.1)

Artists:  A B C D E F G H I J K L M N O P Q R S T U V W X Y Z # 

Symphony Tabs (ver.1)

I Am The Avalanche
Rating:
4/5 (1 vote)

Tabs too difficult? Try these video lessons and learn fast.
                I Am the Avalanche- Symphony

(/) Slide Up  () Slide Down  (h) Hammer On  (p) Pull Off  (b) Bend (r) Release

Intro x1

E|---------------|
B|---------------|
G|---------------|
D|--4------------|
A|--4--x16-------|
E|--2------------|

Verse x2 (drums come in)

E|------------------------------------------------------------------|
B|------------------------------------------------------------------|
G|-----------------------------------4------------------------------|
D|--4-------------4-4-4-4------------4---x16---------2------4-------|
A|--4---x44-------4-4-4-4------------2---------------0------4-------|
E|--2-------------2-2-2-2----------------------------0------2-------|
     Pm…..

Chorus x1

E|--------------------------------------------------------------------|
B|--------------------------------------------------------------------|
G|-----4---------------------------4--------8--------4----------------|
D|-----4---x8---2---------4--------4---x8---8---x8---4---x8---4-------|
A|-----2--------0---x8----4---x8---2--------4--------2--------4---x8--|
E|--------------0---------2-----------------------------------2-------|
      Pm..........................................................


Verse x2

E|----------------------------------------------------------------|
B|----------------------------------------------------------------|
G|----------------------------------4-----------------------------|
D|--4------------4-4-4-4------------4---x16--------2------4-------|
A|--4---x44------4-4-4-4------------2--------------0------4-------|
E|--2------------2-2-2-2---------------------------0------2-------|
   Pm….....


Chorus x1

E|-----------------------------------------------------------------------|
B|-----------------------------------------------------------------------|
G|-----4---------------------------4---------8---------4-----------------|
D|-----4---x8---2---------4--------4---x8----8---x8----4---x8---4--------|
A|-----2--------0---x8----4---x8---2---------4---------2--------4---x8---|
E|--------------0---------2-------------------------------------2--------|


Breakdown

E|-----------|
B|-----------|
G|-----------|
D|--1--------|
A|--1--------|
E|-----------|

Chorus x1

E|----------------------------------------------------------------------|
B|----------------------------------------------------------------------|
G|-----4--------------------------4---------8---------4-----------------|
D|-----4---x6---2--------4--------4---x6----8---x6----4---x6---4--------|
A|-----2--------0---x6---4---x6---2---------4---------2--------4---x8---|
E|--------------0--------2-------------------------------------2--------|

E|----------------------------------------------------------------------|
B|----------------------------------------------------------------------|
G|-----4---------------------------4---------8--------4-----------------|
D|-----4---x8---2---------4--------4---x8----8---x8---4---x8---4--------|
A|-----2--------0---x8----4---x8---2---------4--------2--------4---x8---|
E|--------------0---------2------------------------------------2--------|

Ending

E|--------------|
B|--------------|
G|--------------|
D|--4-----------|
A|--4---x13-----|
E|--2-----------|

There ya go. More IATA to come!
            
Tabs too difficult? Try these video lessons and learn fast.




comments powered by Disqus
↑ Back to top | Tablatures and chords are parodies/interpretations of the original songs. You may use it for private study, scholarship, research or language learning purposes only