» » »

I Am The Avalanche, Mrs Green Tabs (ver.2)

Artists:  A B C D E F G H I J K L M N O P Q R S T U V W X Y Z # 

Mrs Green Tabs (ver.2)

I Am The Avalanche Tabs
 Rating:
4/5 (4 votes)
Mrs Green lessons Tabs too difficult? Try these video lessons and learn fast
1
                                       I Am the Avalanche –Mrs. Green

(/) Slide Up  () Slide Down  (h) Hammer On  (p) Pull Off  (b) Bend (r) Release (v) 
(H) Harmonic

             Intro/Verse 1
E|--------------------------------------------------|
B|--------------------------------------------------|
G|----0----0----0----0-------0-----555--------------|    x6
D|-------------------------------------5------------|
A|--7--7-6--6-5--5-4--4-3333------------------------|
E|--------------------------------------------------|
                                   HHH H
                         Chorus

E|--3----5----3----3----0----3----2---|
B|--1----3----0----0----0----1----3---|
G|--0----0----0----0----0----0----2---|
D|--2----4----0----0----2----2----0---|
A|--3----5----2----0----2----3--------|
E|------------3----2----0-------------|

              Verse 2

E|--x--x--x--x--x-----|
B|--0--0--0--0--0-----|
G|--0--0--0--0--0-----|    x6
D|--x--x--x--x--x-----|
A|--7--6--5--4--3-----|
E|--------------------|

            (Chorus 2x)

            Breakdown

E|-x--x--x--x-|
B|-0--0--0--x-|
G|-0--0--0--0-|
D|-x--x--x--x-|
A|-7--6--5--4-|
E|------------|

             (Verse 4x)

There ya go- the acoustic version of Mrs. Green, more IATA to come!
            
Submit corrections

comments powered by Disqus
↑ Back to top | I Am The Avalanche Tabs for Mrs Green. Lyrics for acoustic guitar and electric guitar. 1 Tablatures and chords are parodies/interpretations of the original songs. You may use it for private study, scholarship, research or language learning purposes only