» » »

I Am The Avalanche, Is This Really Happening Tabs (ver.1)

Artists:  A B C D E F G H I J K L M N O P Q R S T U V W X Y Z # 

Is This Really Happening Tabs (ver.1)

I Am The Avalanche Tabs
Rating:
0/5 (0 votes)
Hard to play? Try these video lessons and learn fast.
                I Am The Avalanche -   Is This Really Happening?

Tuning: Drop D

(/) Slide Up  (\) Slide Down  (h) Hammer On  (p) Pull Off  (b) Bend (r) Release (v) Vibrato


Intro (2x)

E|--------------------------------------------------------------------------|
B|--------------------------------------------------------------------------|
G|--8--------3--------------------------3--------2--------------------------|
D|--8--------3--------3--------3--------3--------2----3----1--------1-------|
A|--6--------1--------3--------3--------1--------0----3----1--------1-------|
E|--------------------3--------3----------------------3----1--------1-------|


Intro Lead (comes in 2nd time)

E|--------------------------------------------------------------------------|
B|--------------------------------------------------------------------------|
G|--------------------------------------------------------------------------|
D|--5--5--5--5--3--------------------------------3--3-----------------------|
A|-----------------------5--3--0--1--1--3--5---------------5--6--5--1-------|
E|--------------------------------------------------------------------------|

Verse (2x)

E|--------------------------------------------------------------------------|
B|--------------------------------------------------------------------------|
G|--------------------------------------------------------------------------|
D|--0---------------0-----------------------0-------------------------------|
A|----------3---------------0---------1------------1--------33333333333-----|
E|--------------------------------------------------------------------------|

Bridge

E|-------------|
B|-------------|
G|-------------|
D|------0------|
A|------0------|
E|------0------|

Chorus (2x) (same chords as intro)
E|--------------------------------------------------------------------------|
B|--------------------------------------------------------------------------|
G|--8--------3--------------------------3--------2--------------------------|
D|--8--------3--------3--------3--------3--------2----3----1--------1-------|
A|--6--------1--------3--------3--------1--------0----3----1--------1-------|
E|--------------------3--------3----------------------3----1--------1-------|

Verse (2x)

Bridge

Chorus (4x)

Then…

E|--------------------|
B|--------------------|
G|--------3-----------|
D|--1--0--3--3--------|
A|--1--0--1--3--------|
E|--1--0-----3--------|


Breakdown (2x)

E|--------------------------------------------------------------|
B|--------------------------------------------------------------|
G|-------3-------------------3------------------5---------------|
D|---3--------3---3------3--------3---3-----3-------3---3-------|
A|-6---6--------6------5---5--------5---------------------------|
E|----------------------------------------3---3-------5---------|

E|--------------------------------------------------------------|
B|--------6-----------------------------------------------------|
G|-----------------------------5---------------------5----------|
D|----3--------3---3-------3---------3---3-------3--------3--3--|
A|-----------------------1---1---------1-------0---0--------0---|
E|--3---3--------3----------------------------------------------|

E|--------------------------------------------------------------|
B|--------------------------------------------------------------|
G|--------3-----------------------3-----------------------------|
D|----1--------1---1-----0b1----------1---1---------------------|
A|--------------------------------------------------------------|
E|--1---1--------1--------------1-------1-----------------------|


Solo

E|------------------------------------------------------------------------|
B|------------------------------------------------------------------------|
G|--8--------3--------------------------3--------2------------------------|
D|--8--------3--------3--------3--------3--------2----3----1--------1-----|
A|--6--------1--------3--------3--------1--------0----3----1--------1-----|
E|--------------------3--------3----------------------3----1--------1-----|

Chorus (4x)


-----------------------------------IATA---------------------------------|
            

comments powered by Disqus
↑ Back to top | I Am The Avalanche Tabs for Is This Really Happening. Lyrics for acoustic guitar and electric guitar. Tablatures and chords are parodies/interpretations of the original songs. You may use it for private study, scholarship, research or language learning purposes only