» » »

Green Eyes Tabs (ver.2)

Artists:  A B C D E F G H I J K L M N O P Q R S T U V W X Y Z # 

Green Eyes Tabs (ver.2)

I Am The Avalanche
Rating:
5/5 (2 votes)

Hard to play? Try these video lessons and learn fast.
                (Intro)
Green Eyes - I Am The Avalanche
-------------------------------------------------------------------------------

Tuning: Standard

e|---------------------------------------------------------------------------|
B|---------------------------------------------------------------------------|
G|--------3--------------------3---------------------------------------------|
D|------1-----1--------5~----1-----1-------5---------------------------------|
A|----3-----1-------6------3-----1-------6-----------------------------------|
E|--------------4-4------------------4-4-------------------------------------|

e|---------------------------------------------------------------------------|
B|---------------------------------------------------------------------------|
G|--------3------------------------------------------------------------------|
D|------1-----1--------5---5h6p5---------------------------------------------|
A|----3-----1-------6----6------6--------------------------------------------|
E|--------------4-4---------------4------------------------------------------|

e|----------------------4----------------------------------------------------|
B|----------------------4----------------------------------------------------|
G|--------3-------------5----------------------------------------------------|
D|------1-----1---------6----------------------------------------------------|
A|----3-----1-------6---6----------------------------------------------------|
E|--------------4-4-----4----------------------------------------------------|
            
Hard to play? Try these video lessons and learn fast. | Correct




comments powered by Disqus
↑ Back to top | Tablatures and chords are parodies/interpretations of the original songs. You may use it for private study, scholarship, research or language learning purposes only