» » »

Green Eyes Tabs (ver.1)

Artists:  A B C D E F G H I J K L M N O P Q R S T U V W X Y Z # 

Green Eyes Tabs (ver.1)

I Am The Avalanche
Rating:
4/5 (4 votes)

Hard to play? Try these video lessons and learn fast.
                Artist    :  I Am The Avalanche
Song      :  Green Eyes
Album     :  Domestic Disturbance Bootleg

Okay, the EXACt timing of the choruses and so on is not 100% correct but thats
unimportant as it doesn't have to be to sound good!

Standard Tuning -  E  A  D  G  B  e  (Low To High)

Intro:

||----------------------------------------------------------------------------|
||----------------------------------------------------------------------------|
||----------------------------------------------------------------------------|
||-----8------------5~------8------------5~------8------------5---5---5-------|
||---8------6-----6-------8------6-----6-------8------6-----6----6---6--6-----|
|-6------4---4-3-------6------4---4-3-------6------4---4-3---------------3----|

--------------------|
--------------------|
--------------------|
----8------------6~-|
--8------6-----6-6~-|
6------4---4-3---4~-|

|--------------------------------------------------------------|
|--------------------------------------------------------------|
|--------------------------------------------------------------|
|-x-x-6-6-x-x-6--x-x-6-6-x-x-6--x-x-8-8-x-x-8----x-8-8-x-x-8-7-|
|-x-x-6-6-x-x-6--x-x-6-6-x-x-6--x-x-8-8-x-x-8----x-8-8-x-x-8-7-|
|-x-x-4-4-x-x-4--x-x-4-4-x-x-4--x-x-6-6-x-x-6----x-6-6-x-x-6-5-|

 -------------------------------------------------------------||
 -------------------------------------------------------------||
 -------------------------------------------------------------||
 -x-x-6-6-x-x-6--x-x-6-6-x-x-6--xx-5-5-5-xx-8-8-8-xx-5-5-5-xx-||
 -x-x-6-6-x-x-6--x-x-6-6-x-x-6--xx-5-5-5-xx-8-8-8-xx-5-5-5-xx-||
 -x-x-4-4-x-x-4--x-x-4-4-x-x-4--xx-3-3-3-xx-6-6-6-xx-3-3-3-xx-||


Verse:
                     I fell in love with a ship...
||--------------------------------------------------------------|
||--------------------------------------------------------------|
||--------------------------------------------------------------|
||-x-x-6-6-x-x-6--x-x-6-6-x-x-6--x-x-8-8-x-x-8----x-8-8-x-x-8-7-|
||-x-x-6-6-x-x-6--x-x-6-6-x-x-6--x-x-8-8-x-x-8----x-8-8-x-x-8-7-|
||-x-x-4-4-x-x-4--x-x-4-4-x-x-4--x-x-6-6-x-x-6----x-6-6-x-x-6-5-|

 ...yeah, but she still flipped
  ----------------------------------------|
  ----------------------------------------|
  ----------------------------------------|
  -x-x-6-6-x-x-6--x-x-6-6-x-x-6---x5-5-5--|
  -x-x-6-6-x-x-6--x-x-6-6-x-x-6---x5-5-5--|
  -x-x-4-4-x-x-4--x-x-4-4-x-x-4---x3-3-3--|

|--------------------------------------------------------------|
|--------------------------------------------------------------|
|--------------------------------------------------------------|
|-x-x-6-6-x-x-6--x-x-6-6-x-x-6--x-x-8-8-x-x-8----x-8-8-x-x-8-7-|
|-x-x-6-6-x-x-6--x-x-6-6-x-x-6--x-x-8-8-x-x-8----x-8-8-x-x-8-7-|
|-x-x-4-4-x-x-4--x-x-4-4-x-x-4--x-x-6-6-x-x-6----x-6-6-x-x-6-5-|

 ----------------------------------------------------------||
 ----------------------------------------------------------||
 ----------------------------------------------------------||
 -x-x-6-6-x-x-6--x-x-6-6-6-6-xx-5-5-5-xx-8-8-8-xx-5-5-5-xx-||
 -x-x-6-6-x-x-6--x-x-6-6-6-6-xx-5-5-5-xx-8-8-8-xx-5-5-5-xx-||
 -x-x-4-4-x-x-4--x-x-4-4-4-4-xx-3-3-3-xx-6-6-6-xx-3-3-3-xx-||


Chorus:

||-----------------------------------------------------------------------|
||-----------------------------------------------------------------------|
||-----------------------------------------------------------------------|
||-6-6-6-6-6-6-6-6-6-6-6-6-6-6-6-6-xx-8-8-8-8-8-8-8-8-8-8-8-8-8-8-8-8-xx-|
||-6-6-6-6-6-6-6-6-6-6-6-6-6-6-6-6-xx-8-8-8-8-8-8-8-8-8-8-8-8-8-8-8-8-xx-|
||-4-4-4-4-4-4-4-4-4-4-4-4-4-4-4-4-xx-6-6-6-6-6-6-6-6-6-6-6-6-6-6-6-6-xx-|

  ---------------------------------------------------------------||
  ---------------------------------------------------------------||
  ---------------------------------------------------------------||
  -6-6-6-6-6-6-6-6-6-6-6-6-6-6-6-6-xx-5-5-5-xx-8-8-8-xx-5-5-5-xx-||
  -6-6-6-6-6-6-6-6-6-6-6-6-6-6-6-6-xx-5-5-5-xx-8-8-8-xx-5-5-5-xx-||
  -4-4-4-4-4-4-4-4-4-4-4-4-4-4-4-4-xx-3-3-3-xx-6-6-6-xx-3-3-3-xx-||


Verse:
||--------------------------------------------------------------|
||--------------------------------------------------------------|
||--------------------------------------------------------------|
||-x-x-6-6-x-x-6--x-x-6-6-x-x-6--x-x-8-8-x-x-8----x-8-8-x-x-8-7-|
||-x-x-6-6-x-x-6--x-x-6-6-x-x-6--x-x-8-8-x-x-8----x-8-8-x-x-8-7-|
||-x-x-4-4-x-x-4--x-x-4-4-x-x-4--x-x-6-6-x-x-6----x-6-6-x-x-6-5-|

  ----------------------------------------------------|
  ----------------------------------------------------|
  ----------------------------------------------------|
  -x-x-6-6-x-x-6--x-x-6-6-x-x-6---xx5-5-5-5-5-5-5-5-5-|
  -x-x-6-6-x-x-6--x-x-6-6-x-x-6---xx5-5-5-5-5-5-5-5-5-|
  -x-x-4-4-x-x-4--x-x-4-4-x-x-4---xx3-3-3-3-3-3-3-3-3-|

|--------------------------------------------------------------|
|--------------------------------------------------------------|
|--------------------------------------------------------------|
|-x---6-6-x-x-6--x-x-6-6-x-x-6--x-x-8-8-x-x-8----x-8-8-x-x-8-7-|
|-x---6-6-x-x-6--x-x-6-6-x-x-6--x-x-8-8-x-x-8----x-8-8-x-x-8-7-|
|-x---4-4-x-x-4--x-x-4-4-x-x-4--x-x-6-6-x-x-6----x-6-6-x-x-6-5-|

 --------------------------------------------------------------------||
 --------------------------------------------------------------------||
 --------------------------------------------------------------------||
 -x-x-6-6-x-x-6--x-x-6-6-x-x-6-xx-8-8-8-8-8-8-8-8-8-8-8-xx-8-xx-7-xx-||
 -x-x-6-6-x-x-6--x-x-6-6-x-x-6-xx-8-8-8-8-8-8-8-8-8-8-8-xx-8-xx-7-xx-||
 -x-x-4-4-x-x-4--x-x-4-4-x-x-4-xx-6-6-6-6-6-6-6-6-6-6-6-xx-6-xx-5-xx-||


Chorus:

||-----------------------------------------------------------------------|
||-----------------------------------------------------------------------|
||-----------------------------------------------------------------------|
||-6-6-6-6-6-6-6-6-6-6-6-6-6-6-6-6-xx-8-8-8-8-8-8-8-8-8-8-8-8-8-8-8-8-xx-|
||-6-6-6-6-6-6-6-6-6-6-6-6-6-6-6-6-xx-8-8-8-8-8-8-8-8-8-8-8-8-8-8-8-8-xx-|
||-4-4-4-4-4-4-4-4-4-4-4-4-4-4-4-4-xx-6-6-6-6-6-6-6-6-6-6-6-6-6-6-6-6-xx-|

  ---------------------------------------------------------------|
  ---------------------------------------------------------------|
  ---------------------------------------------------------------|
  -6-6-6-6-6-6-6-6-6-6-6-6-6-6-6-6-xx-5-5-5-xx-8-8-8-xx-5-5-5-xx-|
  -6-6-6-6-6-6-6-6-6-6-6-6-6-6-6-6-xx-5-5-5-xx-8-8-8-xx-5-5-5-xx-|
  -4-4-4-4-4-4-4-4-4-4-4-4-4-4-4-4-xx-3-3-3-xx-6-6-6-xx-3-3-3-xx-|

|-----------------------------------------------------------------------|
|-----------------------------------------------------------------------|
|-----------------------------------------------------------------------|
|-5-5-5-5-5-5-5-5-5-5-5-5-5-5-5-5-xx-8-8-8-8-8-8-8-8-8-8-8-8-8-8-8-8-xx-|
|-6-6-6-6-6-6-6-6-6-6-6-6-6-6-6-6-xx-8-8-8-8-8-8-8-8-8-8-8-8-8-8-8-8-xx-|
|-3-3-3-3-3-3-3-3-3-3-3-3-3-3-3-3-xx-6-6-6-6-6-6-6-6-6-6-6-6-6-6-6-6-xx-|

 ------------------------------------------------------------------||
 ------------------------------------------------------------------||
 ------------------------------------------------------------------||
 -6-6-6-6-6-6-6-6-6-6-6-6-6-6-6-6-xx-5-5-5-xx-8-8-8-xx-5-5-5-xx-6~-||
 -6-6-6-6-6-6-6-6-6-6-6-6-6-6-6-6-xx-5-5-5-xx-8-8-8-xx-5-5-5-xx-6~-||
 -4-4-4-4-4-4-4-4-4-4-4-4-4-4-4-4-xx-3-3-3-xx-6-6-6-xx-3-3-3-xx-4~-||


Bridge:

||----------------------------------------------------------------------------|
|-----------------------------------------------------------------------------|
|-----------------------------------------------------------------------------|
||-----8------------5~------8------------5~------8------------5---5---5-------|
||---8------6-----6-------8------6-----6-------8------6-----6----6---6--6-----|
||-6------4---4-3-------6------4---4-3-------6------4---4-3---------------3---|

  ---------------------||
  ---------------------||
  ---------------------||
  -----8------------6~-||
  ---8------6-----6-6~-||
  -6------4---4-3---4~-||


Chorus:

||-----------------------------------------------------------------------|
||-----------------------------------------------------------------------|
||-----------------------------------------------------------------------|
||-6-6-6-6-6-6-6-6-6-6-6-6-6-6-6-6-xx-8-8-8-8-8-8-8-8-8-8-8-8-8-8-8-8-xx-|
||-6-6-6-6-6-6-6-6-6-6-6-6-6-6-6-6-xx-8-8-8-8-8-8-8-8-8-8-8-8-8-8-8-8-xx-|
||-4-4-4-4-4-4-4-4-4-4-4-4-4-4-4-4-xx-6-6-6-6-6-6-6-6-6-6-6-6-6-6-6-6-xx-|

  ---------------------------------------------------------------|
  ---------------------------------------------------------------|
  ---------------------------------------------------------------|
  -6-6-6-6-6-6-6-6-6-6-6-6-6-6-6-6-xx-5-5-5-xx-8-8-8-xx-5-5-5-xx-|
  -6-6-6-6-6-6-6-6-6-6-6-6-6-6-6-6-xx-5-5-5-xx-8-8-8-xx-5-5-5-xx-|
  -4-4-4-4-4-4-4-4-4-4-4-4-4-4-4-4-xx-3-3-3-xx-6-6-6-xx-3-3-3-xx-|

|-----------------------------------------------------------------------|
|-----------------------------------------------------------------------|
|-----------------------------------------------------------------------|
|-5-5-5-5-5-5-5-5-5-5-5-5-5-5-5-5-xx-8-8-8-8-8-8-8-8-8-8-8-8-8-8-8-8-xx-|
|-6-6-6-6-6-6-6-6-6-6-6-6-6-6-6-6-xx-8-8-8-8-8-8-8-8-8-8-8-8-8-8-8-8-xx-|
|-3-3-3-3-3-3-3-3-3-3-3-3-3-3-3-3-xx-6-6-6-6-6-6-6-6-6-6-6-6-6-6-6-6-xx-|

 ------------------------------------------------------------------|
 ------------------------------------------------------------------|
 ------------------------------------------------------------------|
 -6-6-6-6-6-6-6-6-6-6-6-6-6-6-6-6-xx-5-5-5-xx-8-8-8-xx-5-5-5-xx-6~-|
 -6-6-6-6-6-6-6-6-6-6-6-6-6-6-6-6-xx-5-5-5-xx-8-8-8-xx-5-5-5-xx-6~-|
 -4-4-4-4-4-4-4-4-4-4-4-4-4-4-4-4-xx-3-3-3-xx-6-6-6-xx-3-3-3-xx-4~-|

|-----------------------------------------------------------------------|
|-----------------------------------------------------------------------|
|-----------------------------------------------------------------------|
|-6-6-6-6-6-6-6-6-6-6-6-6-6-6-6-6-xx-8-8-8-8-8-8-8-8-8-8-8-8-8-8-8-8-xx-|
|-6-6-6-6-6-6-6-6-6-6-6-6-6-6-6-6-xx-8-8-8-8-8-8-8-8-8-8-8-8-8-8-8-8-xx-|
|-4-4-4-4-4-4-4-4-4-4-4-4-4-4-4-4-xx-6-6-6-6-6-6-6-6-6-6-6-6-6-6-6-6-xx-|

 ------------------------------------------------------------------||
 ------------------------------------------------------------------||
 ------------------------------------------------------------------||
 -6-6-6-6-6-6-6-6-6-6-6-6-6-6-6-6-xx-5-5-5-xx-8-8-8-xx-5-5-5-xx-6~-||
 -6-6-6-6-6-6-6-6-6-6-6-6-6-6-6-6-xx-5-5-5-xx-8-8-8-xx-5-5-5-xx-6~-||
 -4-4-4-4-4-4-4-4-4-4-4-4-4-4-4-4-xx-3-3-3-xx-6-6-6-xx-3-3-3-xx-4~-||

Okay, so there's a relly great accoustic song to play! And it's pretty simple. So I hope 
like it and please rate it (high!) if you do! (Plus it took me quite a while to tab out!)
Enjoy, Miles.
            
Hard to play? Try these video lessons and learn fast. | Correct




comments powered by Disqus
↑ Back to top | Tablatures and chords are parodies/interpretations of the original songs. You may use it for private study, scholarship, research or language learning purposes only