» » »

Twist Bass tabs (ver.1)

Artists:  A B C D E F G H I J K L M N O P Q R S T U V W X Y Z # 

Twist Bass tabs (ver.1)

I Am Kloot
Rating:
0/5 (0 votes)
Tabs too difficult? Try these video lessons and learn fast.
                


Tuning:Standart EADG

This is my first tab but im pretty sure its 100% correct

Any comment? E-mail me

Fall in at the Verse

Verse
G|--------------------------------|
D|----------------3-3-3-3-2-2-2-2-|
A|0-0-0-0-3-3-3-3-----------------|
E|--------------------------------|

Riff
G|-------------------|
D|-2-0-----0h2p0-----|
A|-----3-2-------3-2-|
E|-------------------|

Chorus

|-------------------------|
|-----------------3-3-3-3-|
|-0-0-0-0-3-3-3-3---------|
|-------------------------|

Interlude (same as the chorus)
|-------------------------|
|-----------------3-3-3-3-|
|-0-0-0-0-3-3-3-3---------|
|-------------------------|

Way of Play

Verse
Riff
Verse
Riff
Chorus
Riff
Verse
Riff
Chorus
Interlude
Riff
Chorus
Riff
            
Tabs too difficult? Try these video lessons and learn fast.


comments powered by Disqus
↑ Back to top | Tablatures and chords are parodies/interpretations of the original songs. You may use it for private study, scholarship, research or language learning purposes only