» » »

Storm Warning Bass tabs (ver.1)

Artists:  A B C D E F G H I J K L M N O P Q R S T U V W X Y Z # 

Storm Warning Bass tabs (ver.1)

I Am Kloot
Rating:
0/5 (0 votes)

Hard to play? Try these video lessons and learn fast.
                
I wanted to play this song once with my mates, but couldn't find any bass tabs to it,
so I figured I'd note one down myself. Based on the guitar chord scheme of Am-G-F-E-(E7).
It's probably not completely correct, but it worked for me.

After each chorus they play the same notes as the verse, but there's
a little fiddly part that I tabbed down under "post-chorus."


-----

Guitar intro [0:00 - 0:14]

G|-------------|-------------|
D|-------------|-------------|
A|-------------|-------------|
E|-------------|-------------|

G|-------------|-------------|
D|-------------|-------------|
A|-------------|-------------|
E|-------------|---------15/--|

Verse [0:15-0:45]

G|-------------|-------------|
D|-------------|-------------|
A|---3---------|---3---------|
E|5-----1--00--|5-----1--00--|

G|-------------|-------------|
D|-------------|-------------|
A|---3---------|---3---------|
E|5-----1--00--|5-----1--00--|

Chorus [0:46-1:14]

G|-------------|-------------|
D|-------------|-------------|
A|---3--88-77--|---3--88-77--|
E|5------------|5------------|

G|-------------|-------------|
D|-------------|-------------|
A|---3--88-77--|---3--88-77--|
E|5------------|5------------|

Post-Chorus [1:15-1:29]

G|-------------|---------------------|
D|-------------|---------------------|
A|---3---------|---3-8-7-3-0---------|
E|5-----1--00--|5------------3-1-0-5-|


Verse [1:30-1:58]

G|-------------|-------------|
D|-------------|-------------|
A|---3---------|---3---------|
E|5-----1--00--|5-----1--00--|

G|-------------|-------------|
D|-------------|-------------|
A|---3---------|---3---------|
E|5-----1--00--|5-----1--00--|


Chorus [1:58-2:25]

G|-------------|-------------|
D|-------------|-------------|
A|---3--88-77--|---3--88-77--|
E|5------------|5------------|

G|-------------|-------------|
D|-------------|-------------|
A|---3--88-77--|---3--88-77--|
E|5------------|5------------|

Post-Chorus [2:26-2:40]

G|-------------|---------------------|
D|-------------|---------------------|
A|---3---------|---3-8-7-3-0---------|
E|5-----1--00--|5------------3-1-0-5-|

Verse [2:41-3:06]

G|-------------|-------------|
D|-------------|-------------|
A|---3---------|---3---------|
E|5-----1--00--|5-----1--00--|

G|-------------|-------------|
D|-------------|-------------|
A|---3---------|---3---------|
E|5-----1--00--|5-----1--00--|

Chorus [3:07-3:37]

G|-------------|-------------|
D|-------------|-------------|
A|---3--88-77--|---3--88-77--|
E|5------------|5------------|

G|-------------|-------------|
D|-------------|-------------|
A|---3--88-77--|---3--88-77--|
E|5------------|5------------|

Post-Chorus [3:38-3:52]

G|-------------|---------------------|
D|-------------|---------------------|
A|---3---------|---3-8-7-3-0---------|
E|5-----1--00--|5------------3-1-0-5-|


Something like that! Enjoy!
            
Hard to play? Try these video lessons and learn fast. | Correct




comments powered by Disqus
↑ Back to top | Tablatures and chords are parodies/interpretations of the original songs. You may use it for private study, scholarship, research or language learning purposes only