» » »

Proof Tabs (ver.1)

Artists:  A B C D E F G H I J K L M N O P Q R S T U V W X Y Z # 

Proof Tabs (ver.1)

I Am Kloot
Rating:
5/5 (5 votes)

Hard to play? Try these video lessons and learn fast.
                



(05.04.2007)

____________
TABLATURE: 
____________

Tuning: E

CAPO: 4th 


    C                        Bm7/11                   Am                    G

E-------0------------------------------------------------0-------0---------------3--------------|
B-----------1----1---------------3--------3----0p3p0-----3p0-------1---------------3-----3--3---|
G---0-0------0----0----------2-2----2-------2---------2--2-----------2---------0-----0---2--4---|repeat
D---2----------------0p2p0---0--------0---------------2--2----0p2-----------0-------------------|
A---3----------3-------------2----------2-------------0--0-------------0----2----------2--------|
E---------------------------------------------------------------------------3----------3--------|



PS: Hold on Am at:

    C                        Bm7/11                   Am                                   C
(  Hey, heard ya read another book,Shoulda take anotherlook What am I....         Whithout you)
E-------0------------------------------------------------0-------0------------0------------0-----|
B-----------1----1---------------3--------3----0p3p0-----3p0-------1------------1----------1-----|
G---0-0------0----0----------2-2----2-------2---------2--2-----------2------------2--------0-----|
D---2----------------0p2p0---0--------0---------------2--2----0p2---------0p2--------------2-----|
A---3----------3-------------2----------2-------------0--0-------------0------------0------3-----|
E------------------------------------------------------------------------------------------------|



_________
CHORDS:
_________


C =     032010   ---
Bm7/11= 020230   ---  Capo: 4th
Am=     002210   ---
G=      320033   ---


INTRO: C   Bm7/11  Am  G

C                           Bm7/11
Hey, could ya stand another drink?
                        Am                       
I'm better when I don't think
                   G                          
It seems to get me through

C                             Bm7/11
Well, d'ya wanna spin another lie?
                   Am
Like we had a good time
                G
Not that I need Proof


C                       Bm7/11
Swell, we're livin in a hotel
                     Am
Someone's ringing my bell
                    G
In a room without a view

C                          Bm7/11
Hey, heard ya read another book
                     Am...
Shoulda take another look
...                   C
what am I... without you?

(repeat)
            
Hard to play? Try these video lessons and learn fast. | Correct




comments powered by Disqus
↑ Back to top | Tablatures and chords are parodies/interpretations of the original songs. You may use it for private study, scholarship, research or language learning purposes only