» » »

Life In A Day Bass tabs (ver.1)

Artists:  A B C D E F G H I J K L M N O P Q R S T U V W X Y Z # 

Life In A Day Bass tabs (ver.1)

I Am Kloot
Rating:
0/5 (0 votes)

Hard to play? Try these video lessons and learn fast.
                Sounds accurate enough, not too sure about the chorus, at all.
Timings are immensely simple if you bother listening to the actual song.

Verse

G|-----------------|-----------------|
D|-----------------|-----------------|
A|-----------------|-----------------|
E|-2-2--5--2--5(b)~|-2-2--5--2--5(b)~| Repeat as necessary.

Optional bend on the 5.

Chorus Part 1

G|-----------------|
D|-----------------|
A|-----------------|
E|---5~----7~------|

Room for improv after the 7~

Chorus Part 2

G|-----------------|-----------------|
D|-----------------|-----------------|
A|-9-7-----9-7-----|-9-7-----9-7-----|
E|-----7~------7~--|-----7~------7~--|

You can let the 7 ring, or improvise.

Outro Sequence

G|-----------------|-----------------|
D|-----------------|-----------------|
A|-----------------|-9-7-----9-7-----|
E|-2-2--5--2--5(b)~|-----7~------7~--| x2
            
Hard to play? Try these video lessons and learn fast. | Correct




comments powered by Disqus
↑ Back to top | Tablatures and chords are parodies/interpretations of the original songs. You may use it for private study, scholarship, research or language learning purposes only