» » »

Darkstar Chords (ver.1)

Artists:  A B C D E F G H I J K L M N O P Q R S T U V W X Y Z # 

Darkstar Chords (ver.1)

I Am Kloot
Rating:
0/5 (0 votes)

Tabs too difficult? Try these video lessons and learn fast.
                
----------------------------



The first song I heard from I Am Kloot back in 
2001. It completely changed my life right there.
Anyways, the bass chords are usually played so
pay attention to the strumming.


Chords:
Gm     [355333]
Bb     [688766]
C7     [032310]
C#sus2 [x46644]
Cm     [335543]
Cm7    [334343]
F9     [xx3243]
F9/G   [xx3043]
Am     [355333]
F      [133211]


[[Intro]]

|-----------------|-----------------|-----------------|-----------------|
|-----------------|-----------------|-----------------|-----------------|
|-------3-------3-|-----------------|-------3-------3-|-----------------|
|-----5-------3---|---2---3--3/5----|-----5-------3---|---2---3---2p0---|
|---5-------5-----|-3---------------|---5-------5-----|-3-------------3-|
|-3-------6-------|-----------------|-3-------6-------|-----------------|


|-----------------|-----------------|-----------------|-----------------|
|-----------------|-----------------|-----------------|-----------------|
|-------3-------3-|-----------------|-------3-------3-|-----------------|
|-----5-------3---|---2---3---5-----|-----5-------3---|---2---3---2-----|
|---5-------5-----|-3---------------|---5-------5-----|-3---------------|
|-3-------6-------|-----------------|-3-------6-------|-----------------|

  Gm
|-----------------|
|-----------------|
|-----------------|
|-8---7---5---3---|
|-----------------|
|-----------------|


[[Verse I]]

Gm          Bb      C7        C#sus2
A dark star follows me tonight
Cm          Cm7    F9       F9/G
Filled with horror and delight
Gm          Bb      C7        C#sus2
She's come to make another son
Cm          Cm7    F9       F9/G
A brother for the other one, who's gone


[[Chorus]]

Gm C7 Gm C7 Gm C7 Bb Am Gm F    x2


[[Verse II]]

Gm          Bb      C7        C#sus2
The black storm on the pillow there,
Cm        Cm7    F9       F9/G
Is the colour of her hair
Gm          Bb      C7        C#sus2
Held by some strange gravity
Cm        Cm7    F9       F9/G
Are my dark star and me.


[[Chorus]]


[[Verse III]]

Gm          Bb      C7        C#sus2
A dark star follows you tonight, you're filled
Cm        Cm7    F9       F9/G
With horror and delight
Gm          Bb      C7        C#sus2
You've come to make another son,
Cm        Cm7    F9       F9/G
A brother for the other one
Gm          Bb      C7        C#sus2
I hold a picture of your face, 
Cm        Cm7    F9       F9/G
in my memory in embrace
Gm          Bb      C7        C#sus2
With you I find I can't replace
Cm        Cm7    F9       F9/G
My dark star.


[[Chorus]]
            
Tabs too difficult? Try these video lessons and learn fast.




comments powered by Disqus
↑ Back to top | Tablatures and chords are parodies/interpretations of the original songs. You may use it for private study, scholarship, research or language learning purposes only