» » »

I Am Ghost, This Is Home Tabs (ver.2)

Artists:  A B C D E F G H I J K L M N O P Q R S T U V W X Y Z # 

This Is Home Tabs (ver.2)

I Am Ghost Tabs
Rating:
0/5 (0 votes)
This Is Home lessons Tabs too difficult? Try these video lessons and learn fast
                I AM GHOST - THIS IS HOME
STANDARD TUNING (EADBGE) 

ahh there were no tabs for this whole song on here, and its an epic song, so
i thought i'd give you a treat and figured it out. it's not hard to play,
and i've put it in standard tuning, simply because i couldnt be arsed to 
re-tune my guitar to drop D, which im pretty sure it's in. so before you 
start complaining about the tuning, take the 3 seconds to retune to 
standard. its not hard.
oh yeh and check out my "lovers requiem" and "pretty people never lie" tabs

legend: 

| b    bend 
| r    return 
| /    slide up 
| \    slide down 
| h    hammer on 
| p    pull off 
| *    pinch harmonic 
| ~    tremolo 
| ...  palm muted 
| x    muted note 
| (n)  optional note 
| tp   tremolo picked


INTRO & VERSE:
clean, let ring throughout, hybrid picking, lots of reverb and delay.

|---------------------3---3---1----------------------|
|----------------------------------------------------|
|-4h5-4h5-5-4h5p4h5p4---5---5------2p0---------4---4-|
|--------------------------------2-----2-----2---2---| x6
|-0~~-----------------2~~----------------------------|
|-----------------------------1~~--------0~~---------|

 you can also play guitar 2, which starts on the 3rd time:
|-5-----5-----5-----5---------------------------------------------|
|-------------------------8---8---8-----6-----6---5-----5-----5---|
|---5-----5-----5-----5-------------5-----5---------5-----5-------|
|-----7-----7-----7-----7---7---7-----7-----7---7-----7-----7---7-| x4
|-----------------------------------------------------------------|
|-----------------------------------------------------------------|


CHORUS:
distortion

|--------------------------------------------|
|--------------------------------------------|
|--------------------------------------------|
|-3--3-3-3--5--5-5-5--2--2-2-2--7-7--7-7-7-7-|
|-3--3-3-3--5--5-5-5--2--2-2-2--7-7--7-7-7-7-|
|-1--1-1-1--3--3-3-3--0--0-0-0--5-5--5-5-5-5-|

|--------------------------------------------|
|--------------------------------------------|
|--------------------------------------------|
|-3--3-3-3--5--5-5-5--7--7-7-7--7-7--7-7-7-7-|
|-3--3-3-3--5--5-5-5--7--7-7-7--7-7--7-7-7-7-|
|-1--1-1-1--3--3-3-3--5--5-5-5--5-5--5-5-5-5-|

|-----------------------------------------|
|-----------------------------------------|
|-----------------------------------------|
|-3--3-3-3--5--5-5-5--2--2-2-2--2-2---7\--|
|-3--3-3-3--5--5-5-5--2--2-2-2--2-2---7\--|
|-1--1-1-1--3--3-3-3--0--0-0-0--0-0-0-5\--|

|--------------------------------------------|
|--------------------------------------------|
|--------------------------------------------|
|-3--3-3-3--5--5-5-5--7--7-7-7--7-7--7-7-7-7-|
|-3--3-3-3--5--5-5-5--7--7-7-7--7-7--7-7-7-7-|
|-1--1-1-1--3--3-3-3--5--5-5-5--5-5--5-5-5-5-|

>REPEAT VERSE, WITHOUT GUITAR 2<
>REPEAT CHORUS<

PRE-SOLO:
distortion
|----------------------|------------------------------------------------|
|----------------------|o-----------------------------------------------|
|----------------------|-----------------------11-11-/14-14-14-14-(14)--|
|-------------------8--|------------------------------------------------|
|-7-7-7-7-7-7-7-7---8--|o-9-9-9-9-9-9-9-9-9--9--9--9-/12-12-12-12-(12)--|
|-5-5-5-5-5-5-5-5-0-6--|--7-7-7-7-7-7-7-7-7--7--------------------------|
  ^t.picking....^         ^t.picking......^

|----------------------------------|
|---------------------------------o|
|-----------------7--7-------6--6--|
|----------------------------------|
|-5-5-5-5-5-5-5-5-5--5-4-4-4-4--4-o|
|-3-3-3-3-3-3-3-3------2-2-2-------|
  ^t.picking....^


SOLO:
distortion

  |-3-| |-3-| |-3-| |-3-| |-3-| |-3-| |-3-| |-3-|
|-----------------------------------------------------------------------|
|-8-7-5-7-5---5--------------------------------------------------7-/7---|
|-----------7---7-6-7-6-4-6-4---4---------------------------6-/6--------|
|-----------------------------7---7-5-7-5-4-5-4-2-4-/4-8-/8-------------| x2
|-----------------------------------------------------------------------|
|-----------------------------------------------------------------------|
  nb: dont use any hammer ons etc.. pick every note.

|---------------------------------------------------------|
|---------------------------------------------------------|
|---------------------------------------------------------|
|-12p9-9-11p9-9-12p9-9-11p9-9-12p9-9-11p9-9-12p9-9-11p9-9-|
|---------------------------------------------------------|
|---------------------------------------------------------|

|-10p7-7-9p7-7-10p7-7-9p7-7-10p7-7-9p7-7-10p7-7-9p7-7-|
|-----------------------------------------------------|
|-----------------------------------------------------|
|-----------------------------------------------------|
|-----------------------------------------------------|
|-----------------------------------------------------|

|---------------------------------------15b15.5-15b15.5-14-12-|
|-15b17-15b17-15-14--17b19-17b19-17-15------------------------|
|-------------------------------------------------------------|
|-------------------------------------------------------------|
|-------------------------------------------------------------|
|-------------------------------------------------------------|

|-17tp--14tp-17tp-18tp--14tp-18tp-19\--|
|--------------------------------------|
|--------------------------------------|
|--------------------------------------|
|--------------------------------------|
|--------------------------------------|

THEN THERE's THE VIOLIN BREAK
THEN THE INTRO BACK TO THE VERSE, WHICH ISN'T NECESSARY, BUT ITS A NICE
Bmajor SCALE:

|--------------------------|
|--------------------------|
|--------------------------|
|---------------5--7--9~~~-|
|------5--7--9-------------|
|-7h9----------------------|


KEY CHANGE CHORUS:
distortion, play twice

|--------------------------------------------|
|--------------------------------------------|
|--------------------------------------------|
|-5--5-5-5--7--7-7-7--4--4-4-4--9-9--9-9-9-9-|
|-5--5-5-5--7--7-7-7--4--4-4-4--9-9--9-9-9-9-|
|-3--3-3-3--5--5-5-5--2--2-2-2--7-7--7-7-7-7-|

|--------------------------------------------|
|--------------------------------------------|
|--------------------------------------------|
|-5--5-5-5--7--7-7-7--9--9-9-9--9-9--9-9-9-9-|
|-5--5-5-5--7--7-7-7--9--9-9-9--9-9--9-9-9-9-|
|-3--3-3-3--5--5-5-5--7--7-7-7--7-7--7-7-7-7-|

|-----------------------------------------|
|-----------------------------------------|
|-----------------------------------------|
|-5--5-5-5--7--7-7-7--4--4-4-4--4-4---9\--|
|-5--5-5-5--7--7-7-7--4--4-4-4--4-4---9\--|
|-3--3-3-3--5--5-5-5--2--2-2-2--2-2-0-7\--|

|--------------------------------------------|
|--------------------------------------------|
|--------------------------------------------|
|-5--5-5-5--7--7-7-7--9--9-9-9--9-9--9-9-9-9-|
|-5--5-5-5--7--7-7-7--9--9-9-9--9-9--9-9-9-9-|
|-3--3-3-3--5--5-5-5--7--7-7-7--7-7--7-7-7-7-|

on the second time through, its far more fun to improvise a solo using a
Bminor pentatonic scale, adding in a few notes:

|---------------------------------7-9-10-|
|--------------------------7-8-10--------|
|----------------------7-9---------------|
|---------------7-9-11-------------------|
|--------7-9-10--------------------------|
|-7-9-10---------------------------------|

so just play around with that, and amaze your chums...


ENDING:
distortion

                     x3.|            x1.|
|-----------------------|---------------|
|-----------------------|---------------|
|-----------------------|---------------|
|-----------------------|---------------|
|-----------------------|---------------|
|--/3--h5--h7---h9--h10-|--h7--h5--h3~~-|


and thats it. it took like 10 minutes to figure out, cus i was going out to
a party, so there's probably some wrong bits. but im not that bothered. if
you don't like it, go make your own tab, ok? comments and corrections are
welcome.

oh and a lovers requiem tab will be coming soon (Y)
figuring it out after lunch.
            

comments powered by Disqus
↑ Back to top | I Am Ghost Tabs for This Is Home. Lyrics for acoustic guitar and electric guitar. Tablatures and chords are parodies/interpretations of the original songs. You may use it for private study, scholarship, research or language learning purposes only