» » »

Ship Of Pills And Needed Things Tabs (ver.2)

Artists:  A B C D E F G H I J K L M N O P Q R S T U V W X Y Z # 

Ship Of Pills And Needed Things Tabs (ver.2)

I Am Ghost
Rating:
4/5 (1 vote)

Tabs too difficult? Try these video lessons and learn fast.
                -------------------------------------------------------------------------------
                  The Ship Of Pills And Needed Things - I Am Ghost
-------------------------------------------------------------------------------

Hopefully I've done an okay job of it! In the second verse I'm not sure about
those little hammer-on and pull-off fills after the triplets, but I've put
what I think. Any corrections throw in the comments and I'll correct it.

I've done it for one guitar and not two, but I've put the second guitar down in
the outro 'cause harmonizing is always cool lol.

Tuning: Step-down, Drop C (CGCFAd)

 PM--| Palm Mute
 |-3-| Triplets
 h     Hammer-on
 p     Pull-off
 x     Mute note

Intro
d|---------------------------------------------------------------------------|
A|---------------------------------------------------------------------------|
F|-------7-----8-----10--7h8p7-----------------------------------------7-----|
C|------------------------------8-8-8-8-8-8-8-8-7-7-7-7-7-7-7-7--------------|
G|5p3p0-------------------------8-8-8-8-8-8-8-8-7-7-7-7-7-7-7-7--5p3p0-------|
C|---------0-0---0-0------------8-8-8-8-8-8-8-8-7-7-7-7-7-7-7-7----------0-0-|
           PM|   PM|                                                     PM|

d|---------------------------------------------------------------------------|
A|---------------------------------------------------------------------------|
F|8-----10--7h8p7-----------------------------------------7-----8-----10-----|
C|-----------------8-8-8-8-8-8-8-8-7-7-7-7-7-7-7-7---------------------------|
G|-----------------6-6-6-6-6-6-6-6-5-5-5-5-5-5-5-5--5p3p0--------------------|
C|--0-0------------8-8-8-8-8-8-8-8-7-7-7-7-7-7-7-7----------0-0---0-0--------|
    PM|                                                     PM|   PM|

d|---------------------------------------------------------------------------|
A|---------------------------------------------------------------------------|
F|7h8p7----------------------------------------------------------------------|
C|-------8-8-8-8-8-8-8-8-7-7-7-7-7-7-7-7--0--0--0------0---------------------|
G|-------8-8-8-8-8-8-8-8-7-7-7-7-7-7-7-7--0--0--0--5-3-0---------------------|
C|-------8-8-8-8-8-8-8-8-7-7-7-7-7-7-7-7--0--0--0--5-3-0---------------------|


Verse: "Die by the sword..."
d|---------------------------------------------------------------------------|
A|---------------------------------------------------------------------------|
F|---------------------------------------------------------------------------|
C|------------------------3h5p3-------------------------------3h5p3----------|
G|0-0-0-0-0-5p3p0-0-0-0-0-------5p3p0-0-0-0-0-0-5p3p0-0-0-0-0-------5p3p0----|
C|0-0-0-0-0-------0-0-0-0-------------0-0-0-0-0-------0-0-0-0----------------|
  PM------|       PM----|             PM------|       PM----|

d|---------------------------------------------------------------------------|
A|---------------------------------------------------------------------------|
F|---------------------------------------------------------------------------|
C|------------------------3h5p3-------6--6-6-6-6-6-6-3--3-3-3-3-3-3----------|
G|0-0-0-0-0-5p3p0-0-0-0-0-------5p3p0-6--6-6-6-6-6-6-3--3-3-3-3-3-3----------|
C|0-0-0-0-0-------0-0-0-0-------------6--6-6-6-6-6-6-3--3-3-3-3-3-3----------|
  PM------|       PM----|


Pre-Chorus: "So kiss the girl..."
d|---------------------------------------------------------------------------|
A|---------------------------------------------------------------------------|
F|---------------------------------------------------------------------------|
C|8--8--8-8--8--10--10--11--11-----------------------------------------------|
G|8--8--8-8--8--10--10--11--11-----------------------------------------------|
C|8--8--8-8--8--10--10--11--11-----------------------------------------------|


Chorus: "Lakes and fire storm..."
d|---------------------------------------------------------------------------|
A|---------------------------------------------------------------------------|
F|------------------------2-0------------------------------------------------|
C|--------3-2-0---------------3-2--3--3-3-3-3-3-3--7--7-7-7-7-7-7------------|
G|3h5p3h5-------0-3h5p3h5----------3--3-3-3-3-3-3--7--7-7-7-7-7-7--3h5p3h5---|
C|---------------------------------3--3-3-3-3-3-3--7--7-7-7-7-7-7------------|

d|---------------------------------------------------------------------------|
A|---------------------------------------------------------------------------|
F|----------------2-0-----10--10-10-10-10-10-10--14--14-14-14-14-14-14-------|
C|3-2-0---------------3-2--x---x--x--x--x--x--x---x---x--x--x--x--x--x-------|
G|------0-3h5p3h5----------8---8--8--8--8--8--8--12--12-12-12-12-12-12-------|
C|---------------------------------------------------------------------------|

d|---------------------------------------------------------------------------|
A|---------------------------------------------------------------------------|
F|---------------------------------------------------------------------------|
C|8--8--8-8--8--5--5--5-5--5-x-x--8--8--8-8--8--5--7--8--10------------------|
G|8--8--8-8--8--5--5--5-5--5-x-x--8--8--8-8--8--5--7--8--10------------------|
C|8--8--8-8--8--5--5--5-5--5-x-x--8--8--8-8--8--5--7--8--10------------------|


Interlude
d|---------------------------------------------------------------------------|
A|---------------------------------------------------------------------------|
F|-------7-----8-----10--7h8p7-----------------------------------------7-----|
C|------------------------------8-8-8-8-8-8-8-8-7-7-7-7-7-7-7-7--------------|
G|5p3p0-------------------------6-6-6-6-6-6-6-6-5-5-5-5-5-5-5-5--5p3p0-------|
C|---------0-0---0-0------------8-8-8-8-8-8-8-8-7-7-7-7-7-7-7-7----------0-0-|

d|---------------------------------------------------------------------------|
A|---------------------------------------------------------------------------|
F|8-----10--7h8p7------------------------------------------------------------|
C|-----------------8-8-8-8-8-8-8-8-7-7-7-7-7-7-7-7---------------------------|
G|-----------------8-8-8-8-8-8-8-8-7-7-7-7-7-7-7-7---------------------------|
C|--0-0------------8-8-8-8-8-8-8-8-7-7-7-7-7-7-7-7---------------------------|


Verse 2: "Tonight this is war..."
d|---------------------------------------------------------------------------|
A|---------------------------------------------------------------------------|
F|---------------------------------------------------------------------------|
C|---------------------------------------------------------------------------|
G|0--0-0-0-0-0-0-0-0-0-0-0-0-0-0-0-0-0-0---------0--0-0-0-0-0-0-0-0-0-0-0-0--|
C|0--0-0-0-0-0-0-0-0-0-0-0-0-0-0-0-0-0-0-3h5p3p0-0--0-0-0-0-0-0-0-0-0-0-0-0--|
     |-3-| |-3-| |-3-| |-3-| |-3-| |-3-|            |-3-| |-3-| |-3-| |-3-|
  PM-----------------------------------|         PM-----------------------|

d|---------------------------------------------------------------------------|
A|---------------------------------------------------------------------------|
F|---------------------------------------------------------------------------|
C|-------------------------------------------------------------------6--6-6-6|
G|0-0-0-0-0-0---------0--0-0-0-0-0-0-0-0-0-0-0-0-0-0-0-0-0-0---------6--6-6-6|
C|0-0-0-0-0-0-3h5p3p0-0--0-0-0-0-0-0-0-0-0-0-0-0-0-0-0-0-0-0-3h5p3p0-6--6-6-6|
  |-3-| |-3-|            |-3-| |-3-| |-3-| |-3-| |-3-| |-3-|
  PM--------|         PM-----------------------------------|

d|---------------------------------------------------------------------------|
A|---------------------------------------------------------------------------|
F|---------------------------------------------------------------------------|
C|6-6-6--3--3-3-3-3-3-3------------------------------------------------------|
G|6-6-6--3--3-3-3-3-3-3------------------------------------------------------|
C|6-6-6--3--3-3-3-3-3-3-x2---------------------------------------------------|

Pre-Chorus
Chorus

Interlude
d|---------------------------------------------------------------------------|
A|-----------------------------0---------------------------------------------|
F|-----------------------------5---------------------------------------------|
C|---------------------------------------------------------------------------|
G|0--0-0-0-0-0----0--0-0-0-0-0------0--0-0-0-0-0----0--0-0-0-0-0-------------|
C|0--0-0-0-0-0----0--0-0-0-0-0------0--0-0-0-0-0----0--0-0-0-0-0-------------|
     |-3-|           |-3-|             |-3-|           |-3-|

Bridge: "Crashed the ships they built..."
d|---------------------------------------------------------------------------|
A|---------------------------------------------------------------------------|
F|---------------------------------------------------------------------------|
C|8--5--7--3-0----8--5--7--10------8--5--7--3-0----8--5--7--10-0----6----3---|
G|8--5--7--3-0----8--5--7--10-0----8--5--7--3-0----8--5--7--10-0----6----3---|
C|8--5--7--3-0----8--5--7--10-0----8--5--7--3-0----8--5--7--10-0----6----3---|
                             PM

d|---------------------------------------------------------------------------|
A|---------------------------------------------------------------------------|
F|---------------------------------------------------------------------------|
C|-6----3--------------------------------------------------------------------|
G|-6----3--3-3-3-3-3-3-3-3-3-3-3-3-3-3---------------------------------------|
C|-6----3--3-3-3-3-3-3-3-3-3-3-3-3-3-3---------------------------------------|
           PM------------------------|

Chorus: "Lakes and fire storm..."
d|---------------------------------------------------------------------------|
A|---------------------------------------------------------------------------|
F|------------------------2-0------------------------------------------------|
C|--------3-2-0---------------3-2--3--3-3-3-3-3-3--7--7-7-7-7-7-7------------|
G|3h5p3h5-------0-3h5p3h5----------3--3-3-3-3-3-3--7--7-7-7-7-7-7--3h5p3h5---|
C|---------------------------------3--3-3-3-3-3-3--7--7-7-7-7-7-7------------|

d|---------------------------------------------------------------------------|
A|---------------------------------------------------------------------------|
F|----------------2-0-----10--10-10-10-10-10-10--14--14-14-14-14-14-14-------|
C|3-2-0---------------3-2--x---x--x--x--x--x--x---x---x--x--x--x--x--x-------|
G|------0-3h5p3h5----------8---8--8--8--8--8--8--12--12-12-12-12-12-12-------|
C|----------------------------------------------------------------------x2---|

d|---------------------------------------------------------------------------|
A|---------------------------------------------------------------------------|
F|---------------------------------------------------------------------------|
C|8--8--8-8--8--5--5--5-5--5-x-x--8--8--8-8--8--7--3--2----------------------|
G|8--8--8-8--8--5--5--5-5--5-x-x--8--8--8-8--8--7--3--2----------------------|
C|8--8--8-8--8--5--5--5-5--5-x-x--8--8--8-8--8--7--3--2----------------------|

d|---------------------------------------------------------------------------|
A|---------------------------------------------------------------------------|
F|---------------------------------------------------------------------------|
C|8--8--8-8--8--5--5--5-5--5-x-x--8--8--8-8--8--5--7--8--10------------------|
G|8--8--8-8--8--5--5--5-5--5-x-x--8--8--8-8--8--5--7--8--10------------------|
C|8--8--8-8--8--5--5--5-5--5-x-x--8--8--8-8--8--5--7--8--10------------------|


Outro
d|---------------------------------------------------------------------------|
A|----11-11-11-10-10-10--------------------11-11-11-10-10-10-----------------|
F|----------------------10-10-10-9-9-9-----------------------10-10-10-9-9-9--|
C|0-0----------------------------------0-0-----------------------------------|
G|0-0----------------------------------0-0-----------------------------------|
C|0-0----------------------------------0-0----------------------------------x2
  PM|                                  PM|

OR on the second time you can play the second guitar part.

d|---------------------------------------------------------------------------|
A|----15-15-15-13-13-13-----------------------15-15-15-13-13-13--------------|
F|----------------------14-14-14-12-12-12-----------------------14-14-14-12--|
C|0-0-------------------------------------0-0--------------------------------|
G|0-0-------------------------------------0-0--------------------------------|
C|0-0-------------------------------------0-0--------------------------------|
  PM|                                     PM|

d|---------------------------------------------------------------------------|
A|---------------------------------------------------------------------------|
F|12-12----------------------------------------------------------------------|
C|-------0---0---------------------------------------------------------------|
G|-------0---0---------------------------------------------------------------|
C|-------0---0---------------------------------------------------------------|
         PM--|

===============================================================================
            
Tabs too difficult? Try these video lessons and learn fast.




comments powered by Disqus
↑ Back to top | Tablatures and chords are parodies/interpretations of the original songs. You may use it for private study, scholarship, research or language learning purposes only