» » »

So, I Guess This Is Goodbye Tabs (ver.1)

Artists:  A B C D E F G H I J K L M N O P Q R S T U V W X Y Z # 

So, I Guess This Is Goodbye Tabs (ver.1)

I Am Ghost
Rating:
0/5 (0 votes)

Hard to play? Try these video lessons and learn fast.
                I AM GHOST - SO I GUESS THIS IS GOODBYE
DROPPED D TUNING (DADBGE) 

aren't any tabs for the new album, I thought i'd start it off. this isn't
perfect, although it's damn close, but i worked it out over lunch using
do with what I had. i'll buy the album soon, and tab it up properly. 
but for now, here you go. oh and don't worry, i tabbed the solo..

legend: 

| b    bend 
| r    return 
| /    slide up 
| \    slide down 
| h    hammer on 
| p    pull off 
| *    pinch harmonic 
| ~    tremolo 
| ...  palm muted 
| x    muted note 
| (n)  optional note 
| tp   tremolo picked
| ==   hold bend


INTRO:
acoustic
not perfect, but not too far off. 

|----------------------------------------------|
|-(4)------(9)------7------4--5--4-------------|
|--4~-------9------------------------6--4--3---|
|--6~------11-------8----------------4---------|
|--------------------------6--------(4)----6---|
|----------------------------------------------|

                       |distortion on
|----------------------|--------------------|
|-(4)------(9)------7--|--------------------|
|--4~-------9----------|--------------------|
|--6~------11-------8--|-----------------4--|
|----------------------|-4-4-4-4-4-4-4-4-4--|
|----------------------|-4-4-4-4-4-4-4-4-4--|


CHORUS RIFF:
distorted

|---------------------------------------------------------------|
|---------------------------------------------------------------|
|---------------------------9--8--------------8---8-9-8---------|
|-(1/)-6-6-8-6-/13-11-9~-9--------11~-9~-9-11---9-------11-9-6~-|
|---------------------------------------------------------------|
|---------------------------------------------------------------|

|--------------------------------------------|
|--------------------------------------------|
|-----8-----6-----9-----9---/13-11~---9-8~---|
|-6-6---6-6---6-6---6-6---6------------------|
|--------------------------------------------|
|--------------------------------------------|
  . .   . .   . .   . .   .

|-----------------------------------------|
|------------------------------17~-16~~---|
|-6-8-9~----8~----13~--15-16~-------------|
|-----------------------------------------|
|-----------------------------------------|
|-----------------------------------------|


VERSE:

 "so i drew a goodnight kiss..."
|-----------------------------------------------------------------|
|-----------------------------------------------------------------|
|-----------------------------------------------------------------|
|-----------------------------------------------------------------|
|-6-6-6-6-6-6-6-6-9-9-9-9-9-9-9-9-4-4-4-4-4-4-4-4-8-8-8-8-8-8-8-8-|
|-6-6-6-6-6-6-6-6-9-9-9-9-9-9-9-9-4-4-4-4-4-4-4-4-8-8-8-8-8-8-8-8-|

 "..you. held your face in time.."
|--------------------|
|-16t0t4t0-t16t0t4t0-|
|--------------------|
|--------------------| x4, end the last one with a slide to 0
|--------------------|
|--------------------|

             "but it was too late.."
|-------------------------------------------------|
|-------------------------------------------------|
|-13-13-13-13-13-13-13-13-16-16-16-16-16-16-16-16-|
|--x--x--x--x--x--x--x--x--x--x--x--x--x--x--x--x-|
|-11-11-11-11-11-11-11-11-14-14-14-14-14-141-4-14-|
|-------------------------------------------------|
                      "with knives and dressed.."
|---------------------------------------------------|
|---------------------------------------------------|
|-11-11-11-11-11-11-11-11-15-15/16-15-(15)-16-15-13-|
|--x--x--x--x--x--x--x--x--x--x--x--x---x---x--x--x-|
|--9--9--9--9--9--9--9--9-13-13/14-13-(13)-16-15-13-|
|---------------------------------------------------|

|-----------------------------------------|
|-----------------------------------------|
|-13-13-13-13-13-13-13-13-9-9-9-9-9-9-9-9-|
|--x--x--x--x--x--x--x--x-x-x-x-x-x-x-x-x-|
|-11-11-11-11-11-11-11-11-7-7-7-7-7-7-7-7-|
|-----------------------------------------|

|-----------------------------------------|
|-----------------------------------------|
|-11-11-11-11-11-11-11-11-8-8-8-8-8-8-8-8-|
|--x--x--x--x--x--x--x--x-x-x-x-x-x-x-x-x-|
|--9--9--9--9--9--9--9--9-6-6-6-6-6-6-6-6-|
|-----------------------------------------|


PRECHORUS:
i'm not sure about guitar 1's riff, but its something like it.
so i've put guitar 2 in, just in case you dont like guitar 1.

  "romantic...            he's learned a lot from.."
||guitar 1:
|---------------------------------|---------------------------------|
|---------------------------------|---------------------------------|
|-9-8-9-8-9-8---8---8---6---------|-9-8-9-8-9-8---8---8---8---8---8-|
|-------------6---6---6---6-------|-------------6---6---6---6---6---|
|---------------------------9-7-6-|---------------------------------|
|---------------------------------|---------------------------------|
|
|| or guitar 2:
|---------------------------------|---------------------------------|
|---------------------------------|---------------------------------|
|---------------------------------|---------------------------------|
|---------------------------------|---------------------------------|
|-2-2-2-2-2-2-2-2-2-2-2-2-2-2-2-2-|-4-4-4-4-4-4-4-4-4-4-4-4-4-4-4-4-|
|-2-2-2-2-2-2-2-2-2-2-2-2-2-2-2-2-|-4-4-4-4-4-4-4-4-4-4-4-4-4-4-4-4-|

||guitar 1:
|---------------------------------|---------------------|
|---------------------------------|---------------------|
|-9-8-9-8-9-8---8---8---6-------8-|-9-9---9-9---9-8b9~--|
|-------------6---6---6---6-------|---------------------|
|---------------------------9-7---|---------------------|
|---------------------------------|---------------------|
|
||
|---------------------------------|---------------------|
|---------------------------------|---------------------|
|---------------------------------|---------------------|
|---------------------------------|---------------------|
|-2-2-2-2-2-2-2-2-2-2-2-2-2-2-2-2-|-4-4---4-4---4-4~----|
|-2-2-2-2-2-2-2-2-2-2-2-2-2-2-2-2-|-4-4---4-4---4-4~----|


>REPEAT CHORUS RIFF<
>REPEAT VERSE<
>REPEAT PRECHORUS<
>REPEAT CHORUS<


BRIDGE:

  "one.. this blood is love..."
|--------------------------------------|
|--------------------------------------|
|--------9~-8~-----------------8-------|
|-/9~~---------9-11~----9~-11~---6~----|
|--------------------------------------|
|--------------------------------------|

then repeat intro a few times, while the bass has a little solo.
then:


PRESOLO:
   "he's learned a lot..."
|------------------------------------------------------------|
|------------------------------------------------------------|
|--4-------6-------9-9-9-8-8-8-4-4-4-4-4-4-4-4-4-4-3~--------|
|--x--X16--x--X16--x-x-x-x-x-x-x-x-x-x-x-x-x-x-x-x-x----5~---|
|--2-------4-------7-7-7-6-6-6-2-2-2-2-2-2-2-2-2-2-1~--------|
|------------------------------------------------------------|


SOLO:
just incase you can't play parts, i'll put guitar 2's chords in.


|-/16~--16-18-19--18--19-18------|-------16~------16h18p16------------|
|---------------------------19~--|---16--------16----------16---------|
|--------------------------------|--x---------x---------------18-13~--|
|--------------------------------|-x----------------------------------|
|--------------------------------|------------------------------------|
|--------------------------------|------------------------------------|
|                                  ^rake        ^....sweep pick....^
||guitar 2:
|--------------------------------|------------------------------------|
|--------------------------------|------------------------------------|
|--------------------------------|------------------------------------|
|--------------------------------|------------------------------------|
|-6-----------9-------------4----|---8------------6-------------------|
|-6-----------9-------------4----|---8------------6-------------------|


|-----------------------------------|-------------------------------|
|-----------------------------------|-------------------------------|
|----13-15----13-15-16-13-15-16-15~-|-16/18--16-18-19~--16/19-20~---|
|-13-------16-----------------------|-------------------------------|
|-----------------------------------|-------------------------------|
|-----------------------------------|-------------------------------|
|
||guitar 2:
|-----------------------------------|-------------------------------|
|-----------------------------------|-------------------------------|
|-----------------------------------|-------------------------------|
|-----------------------------------|-------------------------------|
|-------2----------------------4----|-----------1-------------------|
|-------2----------------------4----|-----------1-------------------|


>REPEAT CHORUS<
>REPEAT CHORUS<

ENDING:

|---------------------------------------|
|---------------------------------------|
|-8h9p8h9p8h9p8h9p8h9p8h9p8h9p8h9p8~~---|
|---------------------------------------|
|---------------------------------------|
|---------------------------------------|

and that's it. I know it's not perfect, but i did it in about 10 minutes, so
go easy.. at least you have something to use. and anyway it's pretty close.
but yeh comments, corrections, REQUESTS, whatever, are all welcome.
and check out my other i am ghost tabs:
•this is home
•lovers requiem
•pretty people never lie
            
Hard to play? Try these video lessons and learn fast. | Correct




comments powered by Disqus
↑ Back to top | Tablatures and chords are parodies/interpretations of the original songs. You may use it for private study, scholarship, research or language learning purposes only