» » »

Smile Of A Jesus Freak Tabs (ver.1)

Artists:  A B C D E F G H I J K L M N O P Q R S T U V W X Y Z # 

Smile Of A Jesus Freak Tabs (ver.1)

I Am Ghost
Rating:
5/5 (2 votes)

Hard to play? Try these video lessons and learn fast.
                I AM GHOST - SMILE OF A JESUS FREAK
DROPPED C TUNING (CGCFAD) 

wayyy last song on the album to tab... finallyy...
yeh ive done all the others and the site wouldnt let me submit this one 
because the server was down or something.. so this one took a bit longer. 
but it's all right and all there, including the solo, so have fun.
cheeeers.
oh and have a look at my other i am ghost tabs (Y) good lad.

legend: 

| b    bend 
| r    return 
| /    slide up 
| \    slide down 
| h    hammer on 
| p    pull off 
| *    pinch harmonic 
| ~    tremolo 
| ...  palm muted 
| x    muted note 
| (n)  optional note 
| tp   tremolo picked
| ==   hold bend


INTRO pt.1:

|-----------------------------|
|-----------------------------|
|-----------7--10---10-9--6---|
|-----------x---x----x-x--x---|
|-x\-x\-x\--5---8----8-7--4---|
|-x\-x\-x\--------------------|
  ^pickslide


INTRO pt.2:

|----------------------------------------------------|
|----------------------------------------------------|
|-7-7-7-7-7-7-7-7-7-7-7--8--7-7-7-7-7-7-7-7-7-7-7-7--|
|-x-x-x-x-x-x-x-x-x-x-x--x--x-x-x-x-x-x-x-x-x-x-x-x--|
|-5-5-5-5-5-5-5-5-5-5-5--5--5-5-5-5-5-5-5-5-5-5-5-5--|
|----------------------------------------------------|

|----------------------------------------------|
|----------------------------------------------|
|-19-19-19-19-19-19-19-19--19--22---22-21--18--|
|--x--x--x--x--x--x--x--x---x---x----x--x---x--|
|-17-17-17-17-17-17-17-17--17--20---20-10--16--|
|----------------------------------------------|


VERSE:

|-------------------------------------------------------|
|-------------------------------------------------------|
|-19-19------18-18------14-14----12-12---12-10-10---10--|
|--x--x-------x--x-------x--x-----x--x----x--x--x----x--|
|-17-17------16-16------12-12----10-10---10--8--8----8--|
|-------------------------------------------------------|

|-------------------------------------------|------------------------------------|
|-------------------------------------------|------------------------------------|
|-------------------------------------------|----------------------10------------|
|-------12---10---10-12-10------------------|-------12---10---12--------12---10--|
|--------------------------12-10-8----------|------------------------------------|
|-0-0-0----0----0------------------12-10-7--|-0-0-0----0----0----0----0----0-----|

|--------------------------------------------------------------|
|--------------------------------------------------------------|
|-7-7-7-7-7-7-9-9-9-9-9-9-10-10-10-10-10-10-12-12-12-12-12-12--|
|-x-x-x-x-x-x-x-x-x-x-x-x--x--x--x--x--x--x--x--x--x--x--x--x--|
|-5-5-5-5-5-5-7-7-7-7-7-7--8--8--8--8--8--8-10-10-10-10-10-10--|
|--------------------------------------------------------------|


PRECHORUS:

|----------------------8-------9----------|
|------------------------8---8---10---10--|
|-14-----14-----15---------9--------9-----|
|--x------x------x------------------------|
|-12-----12-----13------------------------|
|-----------------------------------------|


CHORUS:

|------------------------------------------------------------------------------------|
|------------------------------------------------------------------------------------|
|-7-7-7-7-7-7-7-7/14-14-12-10--12-12-12-12--15-15-15-14-14-14-14--10-10-14--9-9--14--|
|-x-x-x-x-x-x-x-x--x--x--x--x---x--x--x--x---x--x--x--x--x--x--x---x--x--x--x-x---x--|
|-5-5-5-5-5-5-5-5/12-12-10--8--10-10-10-10--13-13-13-12-12-12-12---8--8-12--7-7--12--|
|------------------------------------------------------------------------------------|
^you'll have to listen to the song to get this right. it's not the exact
 number of strums, but that would have looked even stranger.

|------------------------------------------------------------------|
|------------------------------------------------------------------|
|-7-7-7-7-7-7-7-7-6-6-6-6-6-6-6-6----------------------------------|
|-x-x-x-x-x-x-x-x-x-x-x-x-x-x-x-x----------------------------------|
|-5-5-5-5-5-5-5-5-4-4-4-4-4-4-4-4-8-8-8-8-8-8-8-8-3-3-3-3-7-7-7-7--|
|---------------------------------8-8-8-8-8-8-8-8-3-3-3-3-7-7-7-7--|


>REPEAT INTRO pt.2<
>REPEAT VERSE<
>REPEAT PRECHORUS<
>REPEAT CHORUS<


FOR THE BREAK, IT'S ACTUALLY THE BASS WITH EFFECTS PLAYING THE PART.


SOLO:

|-----------10-------12-------15b18----|
|-10--------13b15----15b17-------------|
|-12b14--------------------------------|
|--------------------------------------|
|--------------------------------------|
|--------------------------------------|

|-20b22--------------------15-------------------------------------------|
|--------17h18~--17h18--18----17-18-17-15-17----------------------------|
|----------------------------------------------14-12--------------------|
|----------------------------------------------------15-14-12-----------|
|-------------------------------------------------------------15-13-12--|
|-----------------------------------------------------------------------|
                                                .  .  .  .  .  .  .  .

|-------13h17p13----------13h17p13---------13h17p13----------13h17p13----|
|----15----------15----15----------15---15----------15----15----------15-|
|-14----------------14----------------14---------------14----------------|
|------------------------------------------------------------------------|
|------------------------------------------------------------------------|
|------------------------------------------------------------------------|
  ^sweep picking

|----------------------------------------|
|-18p0-17p0-15/13--13-15*b17r15--13------|
|-----------------------------------14~--|
|----------------------------------------|
|----------------------------------------|
|----------------------------------------|

|----------------------------|-10-----10-----10-----------------------------|
|----------------------------|----10--13b15--13b15-13p10h13-10-----10-------|
|-10-/12-12-\10--12*-12*\10--|---------------------------------12--12b14~~--|
|----------------------------|----------------------------------------------|
|----------------------------|----------------------------------------------|
|----------------------------|----------------------------------------------|

>REPEAT CHORUS<
>REPEAT CHORUS<

and youre done. 
comment with any corrections or whateverr..
cheers for looking. 
            
Hard to play? Try these video lessons and learn fast. | Correct




comments powered by Disqus
↑ Back to top | Tablatures and chords are parodies/interpretations of the original songs. You may use it for private study, scholarship, research or language learning purposes only