» » »

I Am Ghost, Set Me Free Tabs (ver.1)

Artists:  A B C D E F G H I J K L M N O P Q R S T U V W X Y Z # 

Set Me Free Tabs (ver.1)

I Am Ghost Tabs
 Rating:
4.3/5 (6 votes)
Set Me Free lessons Tabs too difficult? Try these video lessons and learn fast
                I AM GHOST - SET ME FREE
DROPPED D TUNING (DADBGE) 

err decided to work my way through the album, and i enjoyed the solo on
this, so its 3rd in my list. im tabbing this at 2am, so theres probably
wrong bits, but it all seems in order. so go nuts. 
comment with any corrections you have.
cheeeers.
oh and have a look at my other i am ghost tabs (Y) good lad.

legend: 

| b    bend 
| r    return 
| /    slide up 
| \    slide down 
| h    hammer on 
| p    pull off 
| *    pinch harmonic 
| ~    tremolo 
| ...  palm muted 
| x    muted note 
| (n)  optional note 
| tp   tremolo picked
| ==   hold bend


VERSE: clean

|-5~-------|-4~-------|
|-7~-------|-5~-------|
|-6~-------|-6~-------|
|-7~-------|-6~-------|
|----------|----------|
|----------|----------|


VERSE: distorted

|-5p2-2-5p2-2-5p2-2-5p2-2-5p2-2-2-|-4p0-0-4p0-0-4p0-0-4p0-0-4p0-0-0-|----------|
|---------------------------------|---------------------------------|-3~--/5~--|
|---------------------------------|---------------------------------|----------|
|---------------------------------|---------------------------------|----------|
|---------------------------------|---------------------------------|----------|
|---------------------------------|---------------------------------|----------|
^play each section twice!


CHORUS:

|--------------------------------------------------|-------------------|
|--------------------------------------------------|-------------------|
|--------------------------------------------------|-------------------|
|--------------------------------------------------|-9-11-12-11--------|
|-9-9-9-9-9-9-9-9-9-9-9-9-9-9-9-9-9-9-9-9-9-9-9-9--|------------12-9~--|
|-9-9-9-9-9-9-9-9-9-9-9-9-9-9-9-9-9-9-9-9-9-9-9-9--|-------------------|

|------------------------------------|---------------|----------------------------|
|------------------------------------|---------------|----------------------------|
|---6-----6-----6-----6-----6--------|-7/9-9-7~--9p6-|6-7-9--11~-10~-13--14--11~~-|
|-----7-----7-----7-----7-----7---7--|---------------|----------------------------|
|-9-----9-----9-----9-----9-----9----|---------------|----------------------------|
|------------------------------------|---------------|----------------------------|


>REPEAT VERSE<
but add:
playing each section TWICE

|---------------------------|---------------------------|
|---------------------------|---------------------------|
|-------6-7-6--------6-7-6--|---------------------------|
|---------------------------|-------7-9-7--------7-9-7--|
|-4-4----------4-4----------|-9-9----------9-9----------|
|-4-4-4--------4-4-4--------|-9-9-9--------9-9-9--------|
                              ^duno if its a B5 or not.. any ideas?

>REPEAT CHORUS<


PRE SOLO:
adding random wah-wah and vibrato to each note..

|--------------------------------|
|-14~~-----7---------2-----------|
|----------9b11~~~---4b6~~~~~----|
|--------------------------------|
|--------------------------------|
|--------------------------------|


SOLO:
now this is a little tricky, and kinda hard to tab, but do your best.

|-----------------------12/14\12----------|-----------------------------------------|
|-----------------12-14----------14-12----|-12-/14\12----12-------------------------|
|-11-----11-13-14----------------------14-|-----------14----14-13-14-13-11----11*~~-|
|-----14----------------------------------|--------------------------------14-------|
|-----------------------------------------|-----------------------------------------|
|-----------------------------------------|-----------------------------------------|

|-------------------------------------------------------------------------|
|-/10-9h10p9h10p9----9--/10-9h10p9h10p9----9--/10-9h10p9h10p9----9-10*br--|
|-----------------11--------------------11--------------------11----------|
|-------------------------------------------------------------------------|
|-------------------------------------------------------------------------|
|-------------------------------------------------------------------------|

|-------------------------------------------|----------------------------|
|-9h10p9------------------------------------|----------------------------|
|--------11-9-11-9----9---------------------|----------------------------|
|------------------11---11-9----9-----------|-4---6---7---6---7-9-7/11~--|
|----------------------------12---12-11-9/7-|----------------------------|
|-------------------------------------------|---4---4---4---4------------|

|-------17h21p17----17h21p17----------17h21p17----------17h21p17------------|
|----19----------19----------19----19----------19----19----------19---------|
|-18----------------------------18----------------18----------------19-18~--|
|---------------------------------------------------------------------------|
|---------------------------------------------------------------------------|
|---------------------------------------------------------------------------|
^all sweep picked

|---------------------------------|
|---------------------------------|
|-14-16-14-16--16b17-r16--14------|
|----------------------------16~--|< kinda hard to hear, but meh.
|---------------------------------|  might be an octave lower..
|---------------------------------|

|----------------------------------------------------------------14----14-14---------|
|----------------------------------------------14----14-17-14-17----17----17b19~~~~~-|
|----------------------------14----14-16-14-16----16---------------------------------|
|----------14----14-16-14-16----16---------------------------------------------------|
|-16-14-16----16---------------------------------------------------------------------|
|------------------------------------------------------------------------------------|


PRE CHORUS:
i cba to tab it out. im too tired. they're the chords, so just do it yourself, k?

|----------------|
|----------------|
|----------------|
|----------------|
|-4---6---7---9--|
|-4---6---7---9--|


>REPEAT CHORUS x10000000<


CHORUS ADDITION:

|-/17-14-17-14-17-14----------14-------------------|
|--------------------17-14-17----17-14-17-14-------|
|--------------------------------------------14----|
|-----------------------------------------------16-|
|--------------------------------------------------|
|--------------------------------------------------|

|-/17-14-17-14-17-14----14----------------------------|
|--------------------17----17-14-17-14----------------|
|--------------------------------------16b17r16-14----|
|--------------------------------------------------16-|
|-----------------------------------------------------|
|-----------------------------------------------------|

they're alternating, and i cba to count how many times they come up.

and thats it. so go play already
cheers for looking, and next tab will be "buried way too shallow"
            
Submit corrections

comments powered by Disqus
↑ Back to top | I Am Ghost Tabs for Set Me Free. Lyrics for acoustic guitar and electric guitar. Tablatures and chords are parodies/interpretations of the original songs. You may use it for private study, scholarship, research or language learning purposes only