» » »

I Am Ghost, Of Masques And Martyrs Tabs (ver.1)

Artists:  A B C D E F G H I J K L M N O P Q R S T U V W X Y Z # 

Of Masques And Martyrs Tabs (ver.1)

I Am Ghost Tabs
Rating:
2/5 (1 vote)
Of Masques And Martyrs lessons Tabs too difficult? Try these video lessons and learn fast
                Not too certain about parts of it so fiddle around with it and feel free to post corrections.

Tuning - Drop D

Intro

---------------------------------------------------------------------------|
---------------------------------------------------------------------------|
----------------------------------19-18-17-16-15-14-(continue-scr*pe to 1)-|
--/////////////////////----------------------------------------------------|
--/////////////////////----------------------------------------------------|
--/////////////////////----Pick Scr*pe-------------------------------------|

---------------------------------------------------------------------------|
---------------------------------------------------------------------------|
---44444444-6-7----------44444444---------44444444-6-7------44444444-------|
---44444444-6-7----------44444444-5-4-----44444444-6-7------44444444-5-4---|
---22222222-4-5----------22222222-5-4-----22222222-4-5------22222222-5-4---|
----------------------------------5-4--------------------------------5-4---|

Verse

----------------------------------------------------------------------------|
----------------------------------------------------------------------------|
----44-44-44-44---44-44-44-44----44-44-44-44--------------------------------|
----44-44-44-44---44-44-44-44----44-44-44-44----55555-444444-------(-X2)----|
----22-22-22-22---22-22-22-22----22-22-22-22----55555-444444----------------|
------------------------------------------------55555-444444----------------|

----------------------------------------------------------------12p10-------|
----------------------------------------------------------------------12p10-|
----44-44-44-44---44-44-44-44----44-44-44-44--------------------------------|
----44-44-44-44---44-44-44-44----44-44-44-44----55555-444444----------------|
----22-22-22-22---22-22-22-22----22-22-22-22----55555-444444----------------|
------------------------------------------------55555-444444----------------|


Chorus

----------------------------------------------------------------------------|
----------------------------------------------------------------------------|
--44444444-77777777------------44444444-77777777----------------------------|
--44444444-55555555-55555555---44444444-55555555--55555555------------------|
--22222222-55555555-55555555---22222222-55555555--55555555------------------|
--------------------55555555----------------------55555555------------------|

----------------------------------------------------------------------------|
----------------------------------------------------------------------------|
-4/12---4/12-11-9-----------------------------------------------------------|
-4/12---4/12-11-9-------7-7-5-4-2-------------------------------------------|
-2/10---2/10-9--7-------7-7-5-4-2-------------------------------------------|
------------------------7-7-5-4-2-------------------------------------------|

Verse 2

----------------------------------------------------------------------------|
----------------------------------------------------------------------------|
------44444444-77777777-66666666-99999999----------------------(X-3)--------|
------44444444-77777777-66666666-99999999-----------------------------------|
------22222222-55555555-44444444-77777777-----------------------------------|
----------------------------------------------------------------------------|
      ........ ........ ........ ........

-----------------------------------------------------------12p10------------|
-----------------------------------------------------------------12p10------|
-----44-66-77-99-11-11-99-11-11-12-12-14-14-16-16---------------------------|
-----44-66-77-99-11-11-xx-xx-xx-xx-xx-xx-xx-xx-xx---------------------------|
-----22-44-55-77-9--9--77-9--9--10-10-12-12-14-14---------------------------|
----------------------------------------------------------------------------|

Chorus

Bridge

----------------------------------------------------------------------------|
----------------------------------------------------------------------------|
---4444444444-4444444444-7777777777-999999999-------------------------------|
---4444444444-4444444444-7777777777-999999999-------------------------------|
---2222222222-2222222222-5555555555-777777777-------------------------------|
----------------------------------------------------------------------------|

----------------------------------------------------------------------------|
----------------------------------------------------------------------------|
--4444444444-4444444444-7777777777-999999-11-11-11-11-11-11-----------------|
--4444444444-4444444444-7777777777-999999-11-11-11-11-11-11-----------------|
--2222222222-2222222222-5555555555-777777-9--9--9--9--9--9------------------|
----------------------------------------------------------------------------|

----------------------------------------------------------------------------|
----------------------------------------------------------------------------|
--4///////----4/////////---44/////////////---44~----------------------------|
--4///////----4/////////---44/////////////---44~----------------------------|
--2///////----2/////////---22/////////////---22~----------------------------|
----------------------------------------------------------------------------|

Intro

Solo

Chorus x2
            
Submit corrections

comments powered by Disqus
↑ Back to top | I Am Ghost Tabs for Of Masques And Martyrs. Lyrics for acoustic guitar and electric guitar. Tablatures and chords are parodies/interpretations of the original songs. You may use it for private study, scholarship, research or language learning purposes only