» » »

Lovers' Requiem Tabs (ver.1)

Artists:  A B C D E F G H I J K L M N O P Q R S T U V W X Y Z # 

Lovers' Requiem Tabs (ver.1)

I Am Ghost
Rating:
0/5 (0 votes)

Hard to play? Try these video lessons and learn fast.
                I AM GHOST - LOVERS REQUIEM
DROPPED D TUNING (DADBGE)

ah well there weren't any tabs for this song on here, so whilst figuring out my "this is 
tab, i decided to give it a go. it is pretty easy,
probably intermediate because of the intro. it's in drop D, and shouldn't
really take you very long to learn. it's all there, so have fun, and have
a look at my "this is home" and, in the near future, "pretty people never
lie" tabs.
cheersss.

legend:

| b    bend
| r    return
| /    slide up
| \    slide down
| h    hammer on
| p    pull off
| *    pinch harmonic
| ~    tremolo
| ...  palm muted
| x    muted note
| (n)  optional note
| tp   tremolo picked

bpm: around 205 - 210, but with half time feel.

INTRO:
distorted, play 3 times

|-----------------------------------|-----------------------------------|
|-----------------------------------|-----------------------------------|
|-----------------------------------|-----------------------------------|
|---------10-----------9------------|---------10-----------9------------|
|-0-7-8-0----7-0-8-7-0---7-0-8-7-10-|-0-7-8-0----7-0-8-7-0---7-0-10-7-8-|
|-----------------------------------|-----------------------------------|

|---------------------------------|---------------------------------|
|---------------------------------|---------------------------------|
|---------------------------------|---------------------------------|
|-------0-2-3---2-----2-----------|-------0-2-----------5-2---------|
|-0-2-3-------0---5-0---3-5-3-2-3-|-0-2-3-----5-0-5-3-0-----5-3-2-3-|
|---------------------------------|---------------------------------|


VERSE:
distorted

|---------------------------------------|-------------------------------|
|---------------------------------------|-------------------------------|
|---------------------------------------|-------------------------------|
|---------------------------------7-----|-------------------------------|
|-7---------------------------7-8---8-0-|-7--7-7-7--7-7-7--7--5-5--8-8--|
|-7--7-7-7--7-7-7--7-7-7--7-8-----------|-7--7-7-7--7-7-7--7--5-5--8-8--|

|---------------------------------------|---------------|
|---------------------------------------|---------------|
|---------------------------------------|---------------|
|---------------------------------7-----|--3-----2---5--|
|-7---------------------------7-8---8-0-|--3-----2---5--|
|-7--7-7-7--7-7-7--7-7-7--7-8-----------|--3-----2---5--|


PRECHORUS:
distorted

|-----------------------------------------|
|---------5-5-5-5-5-5----------5-5-5-5-5--|
|---------8-8-8-8-8-8----------8-8-8-8-8--|
|-----------------------------------------|
|-0--0-0---------------0--0-0-------------|
|-0--0-0---------------0--0-0-------------|


CHORUS:
distorted

 "show me why we wont let go..........this is our lovers requi-
|-----------------------------------------------------------|
|-----------------------------------------------------------|
|-------------------------------------------------14~---12~-|
|--------------------------------------------------x-----x--|
|-3-3-3-3-3-3-3-3-5-5-5-5-5-5-5-5-7-7-7-7-7-7-7-7-12~---10~-|
|-3-3-3-3-3-3-3-3-5-5-5-5-5-5-5-5-7-7-7-7-7-7-7-7-----------|

  -em.           as wings unfold...."
|-------------------------------------------------------------------|
|-------------------------------------------------------------------|
|-17-17-17-17-17-17-17-17-16-16-16-16\9-9-9/16-16-16-16-16-16-16-16-|
|--x--x--x--x--x--x--x--x--x--x--x--x-x-x-x--x--x--x--x--x--x--x--x-|
|-15-15-15-15-15-15-15-15-14-14-14-14\7-7-7/14-14-14-14-14-14-14-14-|
|-------------------------------------------------------------------|

|-----------------------------------------------------|
|-----------------------------------------------------|
|-16/17\16-16-16-16-16\9-9-9/14-14-14-14-14-14-14-14--|
|--x--x--x--x--x--x--x-x-x-x--x--x--x--x--x--x--x--x--|
|-14/15\14-14-14-14-14\7-7-7-12-12-12-12-12-12-12-12--|
|-----------------------------------------------------|


>REPEAT INTRO<


VERSE 2:
distorted

|---------------------------------|----------------------------------|
|---------------------------------|----------------------------------|
|---------------------------------|----------------------------------|
|---------------------------------|----------------------------------|
|-7--7-7---8---10---8---7---7h8---|-7--7-7---8---10---8------7-------|
|-7--7---7---7----7---7---7-----7-|-7--7---7---7----7---10-0---9-0-7-|

|---------------------------------|----------------------------------|
|---------------------------------|----------------------------------|
|---------------------------------|----------7-7-7-----------5-5-5---|
|---------------------------------|----------x-x-x-----------x-x-x---|
|-7--7-7---8---10---8---7---7h8---|-5--5-5---5-5-5--3--3-3---3-3-3---|
|-7--7---7---7----7---7---7-----7-|-5--5-5-5--------3--3-3-3---------|

|---------------------------------|----------------------------------|
|---------------------------------|----------------------------------|
|---------------------------------|----------------------------------|
|---------------------------------|----------------------------------|
|-7--7-7---8---10---8---7---7h8---|-7--7-7---8---10---8------7-------|
|-7--7---7---7----7---7---7-----7-|-7--7---7---7----7---10-0---9-0-7-|

|---------------------------------|----------------------------------|
|---------------------------------|----------------------------------|
|---------------------------------|----------------------------------|
|---------------------------------|----------------------------------|
|-7--7-7---8---10---8---7---7h8---|-5--5-5---8-7-----3--3-3---2-3-2--|
|-7--7---7---7----7---7---7-----7-|-5--5-5-5-----10--3--3-3-3--------|


>REPEAT PRECHORUS<
>REPEAT CHORUS<


BRIDGE:
distorted

|---------------------------|----------------------------|
|---------------------------|----------------------------|
|-5-2h5p2h5p2h5p2h5p2h5-7-9-|--4-0h4p0h4p0h4p0h4p0h4-4-0-|
|---------------------------|----------------------------|
|---------------------------|----------------------------|
|---------------------------|----------------------------|

|----------------------------|-----------------------------|
|----------------------------|-----------------------------|
|----------------------------|-----------------------------|
|-7-3h7p3h7p3h7p3h7p3h7-9-10-|-5-2h5p2h5p2h5p2h5p2h5-2h5p2-|
|----------------------------|-----------------------------|
|----------------------------|-----------------------------|

then the harmony:
|------------------------------|---------------------------|
|------------------------------|---------------------------|
|-9-5h9p5h9p5h9p5h9p5-10h12p10-|-7-4h7p4h7p4h7p4h7p4h7-7-4-|
|------------------------------|---------------------------|
|------------------------------|---------------------------|
|------------------------------|---------------------------|

|-----------------------------|------------------------------|
|-----------------------------|------------------------------|
|-5-2h5p2h5p2h5p2h5p2h5-7h9p7-|--4-0h4p0h4p0h4p0h4p0h4-0h4p0-|
|-----------------------------|------------------------------|
|-----------------------------|------------------------------|
|-----------------------------|------------------------------|

and then there is the violin harmony, which i really cba to figure out, so
just play the guitar harmony.


BREAK:

|------------------------------------------------------------------|
|------------------------------------------------------------------|
|------------------------------------------------------------------|
|----------------------------10-10-10-10--10-10-10-10--10-10-10-10-|
|-7-7-7-7-7--7-7-7-7-7--...---7--7--7--7---7--7--7--7---7--7--7--7-|
|-7-7-7-7-7--7-7-7-7-7--...----------------------------------------|

|---------------------------------------------|
|---------------------------------------------|
|---------------------------------------------|
|-9-9-9-9--9-9-9-9--9-9-9-9--7-7-7-7--7-7-7-7-|
|-7-7-7-7--7-7-7-7--7-7-7-7--5-5-5-5--5-5-5-5-|
|---------------------------------------------|

then the violin starts with

|-----------------------------|-------------------------------------|
|-----------------------------|-------------------------------------|
|-----------------------------|-------------------------------------|
|-7-9-10-10-9-7-7-9-10-10-9-7-|-10-12-14-14-12-10-10-12-14-14-12-10-|
|-----------------------------|-------------------------------------|
|-----------------------------|-------------------------------------|

|---------------------------------|-----------------------------|
|---------------------------------|-----------------------------|
|---------------------------------|-----------------------------|
|-9-10-12-12-10-9-9-10-12-12-10-9-|-7-9-10-10-9-7-7-9-10-10-9-7-|
|---------------------------------|-----------------------------|
|---------------------------------|-----------------------------|

|-----------------------------|
|-----------------------------|
|-----------------------------|
|-10--7--9~-------10--9--5~~--|
|--------------8--------------|
|-----------------------------|

repeat verses, chorus's, whatever till the end.
thanks for looking
            
Hard to play? Try these video lessons and learn fast. | Correct




comments powered by Disqus
↑ Back to top | Tablatures and chords are parodies/interpretations of the original songs. You may use it for private study, scholarship, research or language learning purposes only