» » »

Killer Likes Candy Tabs (ver.1)

Artists:  A B C D E F G H I J K L M N O P Q R S T U V W X Y Z # 

Killer Likes Candy Tabs (ver.1)

I Am Ghost
Rating:
5/5 (4 votes)

Hard to play? Try these video lessons and learn fast.
                -------------------------------------------------------------------------------
-------------------------------------------------------------------------------

I won't take all the credit for this. The Intro, Verses & Chorus are all from
the guitar pro tab, so whoever did that you did an awesome job! The rest is
all me. I've tried my best so hopefully it's okay, but I'm not sure on some
bits! If there's any corrections put them in the comments and I'll update the
tab!

Enjoi >=D

  /    slide up
  \    slide down
  h    hammer-on
  p    pull-off
  x    Mute note
  tr-| Trill
  PM-| Palm Mute

Tuning: Drop D (DADGBe)

Intro
Guitar 1
  Riff A                                               End Riff A x2
e|-----------------------------------------------------------------------------|
B|------3-4-3-----------3-4-3-----------1-------1------------------------------|
G|5-5-5-------5---5-5-5-------5---1-1-3---1-1-3---0-0-1-0----------------------|
D|--------------5---------------5-------------------------3-1---1--------------|
A|------------------------------------------------------------5----------------|
D|-----------------------------------------------------------------------------|
  PM-             ---             ---     --|

Guitar 2
  Rhy. Fig. 1                                 End Rhy. Fig. 1 x2
e|---------------------------------------------------------------------------|
B|---------------------------------------------------------------------------|
G|5-5-------------5-5--------------------------------------------------------|
D|5-5-------------5-5-------------6-6-------------5-5-----5-5----------------|
A|3-3-------------3-3-------------6-6-------------5-5-----5-5----------------|
D|--------------------------------6-6-------------5-5-----5-5----------------|

Gutiar 1
  Riff B                                               End Riff B x2
e|---------------------------------------------------------------------------|
B|---------------------------------------------------------------------------|
G|---------------------------------------------------------------------------|
D|----5---3-1-0-1-----5---3-1-0-1--------------------------------------------|
A|3-3---3---------3-3---3-----------------3-1--------------------------------|
D|--------------------------------6-6-6-8-----6-8-5-5-6-5-3-1-0-1------------|
  PM-   -         ---   -         ---             --|

Guitar 2
  Rhy. Fig. 2                                   End Rhy. Fig. 2 x2
e|---------------------------------------------------------------------------|
B|---------------------------------------------------------------------------|
G|5-5-5---5-5-5---5-5-5---5-5-5----------------------------------------------|
D|5-5-5---5-5-5---5-5-5---5-5-5---6-6-6---6-6-6---5-5-5---5-5-5--------------|
A|3-3-3---3-3-3---3-3-3---3-3-3---6-6-6---6-6-6---5-5-5---5-5-5--------------|
D|--------------------------------6-6-6---6-6-6---5-5-5---5-5-5--------------|


Verse
Guitar 2
  Rhy. Fig. 3a                                   End Rhy. Fig. 3a x4
e|-----------------------------------------------------------------------------|
B|-----------------------------------------------------------------------------|
G|-----------------------------------------------------------------------------|
D|-----------------------------------------------------------------------------|
A|-----------------------------------------------------------------------------|
D|3-3-3-3-3-3-3-3-3-3-3-3-3-3-3-3-6-6-6-6-6-6-6-6-1-1-1-1-5-5-5-5--------------|
  PM------------------------------------------------------------|

Guitar 1 - plays on the 3rd & 4th time with Rhy. Fig. 3
  Rhy. Fig. 3b                                     End Rhy Fig 3b x2
e|---------------------------------------------------------------------------|
B|---------------------------------------------------------------------------|
G|---------------------------------------------------------------------------|
D|--------0---------------0--------------------------------------------------|
A|----3-----3---3-----3-----3---3-----6---8-6---6-----1---3-1---1------------|
D|3-3---3-----3---3-3---3-----3---6-6---6-----6---1-1---1-----1--------------|
  PM-   -     -   ---   -     -   ---   -     -   ---   -     |

Chorus
Guitar 1
  Rhy. Fig. 4a                                  End Rhy. Fig. 4a
e|-----------------------------------------------------------------------------|
B|-------------------------------------8\6--4/6--4-------6---------------------|
G|5---------------------------5--------x-x--x-x--x-------x---------------------|
D|x-----------6-------8-------x-------10\8--6/8--6-------8---------------------|
A|3-----------x-------x-------3------------------------------------------------|
D|------------6-------8--------------------------------------------------------|
  tr--------| tr----| tr----| tr----|            tr----| tr--------------------|

Guitar 2
   Rhy. Fig. 4b
e|--------------------------------------------------------------------------|
B|--------------------------------------------------------------------------|
G|5-5-5-5-5-5-5-5-5-5-5-5-5-5-5-5-------------------------------------------|
D|5-5-5-5-5-5-5-5-5-5-5-5-5-5-5-5-6-6-6-6-6-6-6-6-8-8-8-8-8-8-8-8-----------|
A|3-3-3-3-3-3-3-3-3-3-3-3-3-3-3-3-6-6-6-6-6-6-6-6-8-8-8-8-8-8-8-8-----------|
D|--------------------------------6-6-6-6-6-6-6-6-8-8-8-8-8-8-8-8-----------|

                                                 End Rhy. Fig. 4b x2
e|---------------------------------------------------------------------------|
B|---------------------------------------------------------------------------|
G|5-5-5-5-5-5-5-5-5-5-5-5-5-5-5-5--------------------------------------------|
D|5-5-5-5-5-5-5-5-5-5-5-5-5-5-5-5-6-6-6-6-6-6-6-6-5-5-5-5-5-5-5-5------------|
A|3-3-3-3-3-3-3-3-3-3-3-3-3-3-3-3-6-6-6-6-6-6-6-6-5-5-5-5-5-5-5-5------------|
D|--------------------------------6-6-6-6-6-6-6-6-5-5-5-5-5-5-5-5------------|


Interlude - Riff A (Guitar 1)
          - Rhy. Fig. 1 (Guitar 2)
Repeat Verse
Repeat Chorus

Interlude
Guitar 1
  Rhy. Fig. 5a           End Rhy. Fig. 5a x2 - on the second time play last
                                               three chords sticato.
e|8-8-8---8-8-8---8-8-8------------------------------------------------------|
B|x-x-x---x-x-x---x-x-x------------------------------------------------------|
G|5-5-5---5-5-5---5-5-5------------------------------------------------------|
D|------------------------3-3-3---1--3--5------------------------------------|
A|------------------------3-3-3---1--3--5------------------------------------|
D|------------------------3-3-3---1--3--5------------------------------------|

Guitar 2
  Rhy. Fig. 5b           End Rhy. Fig. 5b x4 - on the second and 4th time play
                                               last three chords sticato.
e|---------------------------------------------------------------------------|
B|---------------------------------------------------------------------------|
G|5-5-5---5-5-5---5-5-5------------------------------------------------------|
D|5-5-5---5-5-5---5-5-5---3-3-3---1--3--5------------------------------------|
A|3-3-3---3-3-3---3-3-3---3-3-3---1--3--5------------------------------------|
D|------------------------3-3-3---1--3--5------------------------------------|


After Rhy. Fig. 5a Guitar 1 plays this twice.
e|---------------------------------------------------------------------------|
B|---------------------------------------------------------------------------|
G|5-5-5---5-5-5---5-5-5------------------------------------------------------|
D|x-x-x---x-x-x---x-x-x---3-3-3---1--3--5------------------------------------|
A|3-3-3---3-3-3---3-3-3---x-x-x---x--x--x------------------------------------|
D|------------------------3-3-3---1--3--5------------------------------------|

Guitar 1
e|11--11--11-11--11--11--11--11-11--11--11--11-11--11--11--11--11-11---------|
B|14--14--14-14--14--14--14--14-14--14--14--14-14--14--14--14--14-14---------|
G|---------------------------------------------------------------------------|
D|---------------------------------------------------------------------------|
A|---------------------------------------------------------------------------|
D|---------------------------------------------------------------------------|

Guitar 2
e|---------------------------------------------------------------------------|
B|---------------------------------------------------------------------------|
G|5-5-3h5--3--5-5-3h5--3--5-5-3h5--3--5-5-3h5--3-----------------------------|
D|x-x-x----x--x-x-x----x--x-x-x----x--x-x-x----x-----------------------------|
A|3-3-3----3--3-3-3----3--3-3-3----3--3-3-3----3-----------------------------|
D|---------------------------------------------------------------------------|

e|-7---7---7--7---7---7---7---7--7---7---7---7--7---7---7---7---7--7---------|
B|10--10--10-10--10--10--10--10-10--10--10--10-10--10--10--10--10-10---------|
G|---------------------------------------------------------------------------|
D|---------------------------------------------------------------------------|
A|---------------------------------------------------------------------------|
D|---------------------------------------------------------------------------|

e|---------------------------------------------------------------------------|
B|---------------------------------------------------------------------------|
G|---------------------------------------------------------------------------|
D|5-5-3h5--3--5-5-3h5--3--5-5-3h5--3--5-5-3h5--3-----------------------------|
A|3-3-3----3--3-3-3----3--3-3-3----3--3-3-3----3-----------------------------|
D|---------------------------------------------------------------------------|


e|-----------------------------------------------------------------------------|
B|-----------------------------------------------------------------------------|
G|------------------------------------------3h5--------------------------------|
D|----6-----5-----3-------------------3-5-6------------------------------------|
A|3-3---3-3---3-3---3-3-6-5h6-3-3h5-6------------------------------------------|
D|-----------------------------------------------------x2----------------------|
  PM-   ---   ---   --|

Guitar 1 & 2
e|-----------------------------------------------------------------------------|
B|-----------------------------------------------------------------------------|
G|-----------------------------------------------------------------------------|
D|6--------8--------6----------------------------------------------------------|
A|6--------8--------6--------6-6-6-6-6-6-6-6-8-8-8-8-8-8-8-8-------------------|
D|6--------8--------6--------6-6-6-6-6-6-6-6-8-8-8-8-8-8-8-8-------------------|
  |------- |------- |------- PM----------------------------|


Play Chorus

Then Guitar 2 plays Rhy. Fig. 4b twice whilst Guitar 1 plays this

e|---------------------------------------------------15-18-20-23-18h20p18-20b--|
B|------------------------------------------------13---------------------------|
G|5-----------7-----------8----------10----------------------------------------|
D|x-----------x-----------x-----------x----------------------------------------|
A|3-----------5-----------6-----------8----------------------------------------|
D|-----------------------------------------------------------------------------|
  tr--------| tr--------| tr--------| tr--------| tr---------------------------|

Then Guitar 1 plays the intro Riff A and Guitar plays this once

e|---------------------------------------------------------------------------|
B|---------------------------------------------------------------------------|
G|5-5-5-5-5-5-5-5-5-5-5-5-5-5-5-5--------------------------------------------|
D|5-5-5-5-5-5-5-5-5-5-5-5-5-5-5-5-6-6-6-6-6-6-6-6-5-5-5-5-5-5-5-5------------|
A|3-3-3-3-3-3-3-3-3-3-3-3-3-3-3-3-6-6-6-6-6-6-6-6-5-5-5-5-5-5-5-5------------|
D|--------------------------------6-6-6-6-6-6-6-6-5-5-5-5-5-5-5-5------------|

Then Guitar 2 plays the intro Rhy. Fig. 1

End On
e|-----------------------------------------------------------------------------|
B|-----------------------------------------------------------------------------|
G|5----------------------------------------------------------------------------|
D|5----------------------------------------------------------------------------|
A|3----------------------------------------------------------------------------|
D|-----------------------------------------------------------------------------|
===============================================================================
            
Hard to play? Try these video lessons and learn fast. | Correct




comments powered by Disqus
↑ Back to top | Tablatures and chords are parodies/interpretations of the original songs. You may use it for private study, scholarship, research or language learning purposes only