» » »

Dark Carnival Of The Immaculate Tabs (ver.1)

Artists:  A B C D E F G H I J K L M N O P Q R S T U V W X Y Z # 

Dark Carnival Of The Immaculate Tabs (ver.1)

I Am Ghost
Rating:
0/5 (0 votes)

Hard to play? Try these video lessons and learn fast.
                (Intro)
Just the intro and the verse at the moment but hopefully more coming up later.

Top String tuned down to D
Intro after carnival music and screaming
----------------------------------------------------------------------------|
----------------------------------------------------------------------------|
--14-14-14-14-14-14-14-14--13-13-13-13-13-13-13-13--12-12-12-12-12-12-12-12-|
---x--x--x--x--x--x--x--x---x--x--x--x--x--x--x--x---x--x--x--x--x--x--x--x-|
--12-12-12-12-12-12-12-12--11-11-11-11-11-11-11-11--10-10-10-10-10-10-10-10-|
----------------------------------------------------------------------------|

----------------------------------------------------------------------------|
----------------------------------------------------------------------------|
-11-11-11-11-11-11-11-11----------------------------------------------------|
--x--x--x--x--x--x--x--x--------------X-2-----------------------------------|
--9--9--9--9--9--9--9--9----------------------------------------------------|
----------------------------------------------------------------------------|

verse

----------------------------------------------------------------------------|
----------------------------------------------------------------------------|
----11-11--9-9--8-8----------------------9-9--11-11--12-12------------------|
-----x-x---x-x--x-x------5--7p5----------x-x--x--x---x---x----X-2-----------|
-----9-9---7-7--6-6--5h7--------7p5------7-7--9--9---10--10-----------------|
            
Hard to play? Try these video lessons and learn fast. | Correct




comments powered by Disqus
↑ Back to top | Tablatures and chords are parodies/interpretations of the original songs. You may use it for private study, scholarship, research or language learning purposes only