>
 >
Dark Carnival Of The Immaculate

Dark Carnival Of The Immaculate Guitar Tabs

I Am Ghost - Dark Carnival Of The Immaculate chords, tabs, tablatures, lyrics

Guitar lessons | Add/correct | Request | Top 50 tabs Artists:  A B C D E F G H I J K L M N O P Q R S T U V W X Y Z 0-9

Dark Carnival Of The Immaculate Guitar Tabs – I Am Ghost

CD, Sheet music, Poster

Do you like Dark Carnival Of The Immaculate? Share with your friends now
Tabs
Tuning: Drop C

Finally, this TAB is finished. It’s been a while, cause I got stuck
 at the solo for a while. I still not 100% sure the solo’s accurate,
 but it sounds like it works. If a violin part is not marked, either
 there isn’t one, or it’s very similar to the guitar parts.

I am Ghost is an awesome band.

Enjoy!

Intro 
Violin I (comes in at 0:04)
|-12---11-12-11---------------------------------------|
|---------------12---11-12-11-------------------------|
|-----------------------------12---11-12-11--9-11-12--|
|-----------------------------------------------------|
|-----------------------------------------------------|
|-----------------------------------------------------|

Violin II (comes in at 0:14)
|-12.-12----12.-12----12.-12--------------------------|
|-12.-12----12.-12----12.-12--------------------------|
|-----------------------------------------------------|
|-----------------------------------------------------|
|-----------------------------------------------------|
|-----------------------------------------------------|


Guitars I and II 
|---------------------------------------------------------------------|
|---------------------------------------------------------------------|
|-1616161616161616-1515151515151515-1414141414141414-1313131313131313-|
|-x-x-x-x-x-x-x-x--x-x-x-x-x-x-x-x--x-x-x-x-x-x-x-x--x-x-x-x-x-x-x-x--|
|-1414141414141414-1313131313131313-1212121212121212-111111111111111--|
|---------------------------------------------------------------------|

|---------------------------------------------------------------------|
|---------------------------------------------------------------------|
|-1616161616161616-1515151515151515-1414141414141414-1313131312121212-|
|-x-x-x-x-x-x-x-x--x-x-x-x-x-x-x-x--x-x-x-x-x-x-x-x--x-x-x-x-x-x-x-x--|
|-1414141414141414-1313131313131313-1212121212121212-1111111110101010-|
|---------------------------------------------------------------------|

Violin
|-19~--------------18~--------------17~--------------16~--------------|
|---------------------------------------------------------------------|
|---------------------------------------------------------------------|
|---------------------------------------------------------------------|
|---------------------------------------------------------------------|
|---------------------------------------------------------------------|

|-19~--------------18~--------------17~--------------16~-----15~------|
|---------------------------------------------------------------------|
|---------------------------------------------------------------------|
|---------------------------------------------------------------------|
|---------------------------------------------------------------------|
|---------------------------------------------------------------------|


Verse
Guitars I and II				          
|-----------------------------------------------------------|
|-----------------------------------------------------------|
|-99---77---55--------------------99--1111--1212------------|
|-xx---xx---xx--7p0-9p0-10p0h9p0--xx--x-x---x-x-------------|
|-77---55---33--------------------77--9-9---1010------------|
|-------------------------------------------------1-1-4-2-1-|
					  PM| - - -	

|--------------------------------------------------|--------------|
|--------------------------------------------------|--------------|
|-99---77---55--------------------99--1111--1212---|-55555555--3--|
|-xx---xx---xx--7p0-9p0-10p0h9p0--xx--x-x---x-x----|-55555555--3--|
|-77---55---33--------------------77--9-9---1010---|-33333333--1--|
|--------------------------------------------------|--------------|

At the End of the Verse
Violin
|--17h19p17h19p17-------------------------------------------------|
|-----------------19-18-------------------------------------------|
|-----------------------20-19-20~\--------------------------------|
|-----------------------------------------------------------------|
|-----------------------------------------------------------------|
|-----------------------------------------------------------------|


Chorus
Guitar I						2x   “Yeah…”
|-------------------------------------------------------|---------------|
|-------------------------------------------------------|---------------|
|-1616161616161616-1515151515151515---------------------|---------------|
|-x-x-x-x-x-x-x-x--x-x-x-x-x-x-x-x---66666666-88888888--|--7----5--4----|
|-1414141414141414-1313131313131313--66666666-88888888--|--7----5--4----|
|------------------------------------66666666-88888888--|--7----5--4----|

Guitar II							2x   “Yeah”
|---------------------------------------------------------------------|---------------|
|---------------------------------------------------------------------|---------------|
|-1616161616161616-1515151515151515-1414141414141414-1313131313131313-|---------------|
|-x-x-x-x-x-x-x-x--x-x-x-x-x-x-x-x--x-x-x-x-x-x-x-x--x-x-x-x-x-x-x-x--|--7----5--4----|
|-1414141414141414-1313131313131313-1212121212121212-111111111111111--|--7----5--4----|
|---------------------------------------------------------------------|--7----5--4----|

Violin
|-19~--------------18~--------------17~--------------16~--------12/---|
|---------------------------------------------------------------------|
|---------------------------------------------------------------------|
|---------------------------------------------------------------------|
|---------------------------------------------------------------------|
|---------------------------------------------------------------------|

|-19~--------------18~--------------17~--------------19~--------------|------------------------------|
|------------------------------------------------------------------19-|-17~--------------------------|
|---------------------------------------------------------------------|---------16-15----15-14-------|
|---------------------------------------------------------------------|---------------16-------14-13-|
|---------------------------------------------------------------------|------------------------------|
|---------------------------------------------------------------------|------------------------------|

Verse II
Guitar I
|------------------------------------------------------------------------------|
|------------------------------------------------------------------------------|
|--16tb----------16tb----20tb---------15tb-----------151515151717171718181818--|
|----------15tb------------------15tb--------15151515--------------------------|
|------------------------------------------------------------------------------|
|------------------------------------------------------------------------------|

Guitar II
|-----------------------------------------------------------------|
|-----------------------------------------------------------------|
|--17tb----19tb----------20tb----------17tb--2020202022222222-----|
|------------------19tb---------17tb-------------------------/----|
|------------------------------------------------------------/----|
|------------------------------------------------------------/----|

Then Guitars I and II
|------------------------------------------------------------|
|------------------------------------------------------------|
|------10-10------12-12-------10-10--------------------------|
|-3-3--x--x--3-3--x--x---3-3--x--x---8~-----7~---------------|
|-3-3--8--8--3-3--10-10--3-3--8--8---8~-----7~---------------|
|-3-3--------3-3---------3-3---------8~-----7~---------------|

|------------------------------------------------------------|
|------------------------------------------------------------|
|-55555555-77777777-1010101010101010-1212121212121212--------|
|-xxxxxxxx-xxxxxxxx-x-x-x-x-x-x-x-x--x-x-x-x-x-x-x-x----7~---|
|-33333333-55555555-8-8-8-8-8-8-8-8--1010101010101010---7~---|
|-------------------------------------------------------7~---|

Repeat Chorus

Solo

|Guitar I (4x)
|-----------------------------------------------------------------------------------|
|----------------------11-12-11----------------------------11-12-11-----------------|
|----------------11-12----------12-11----------------11-12----------12-11-----------|
|-12-11----11-12----------------------12-11----11-12----------------------12-11-----|
|-------12----------------------------------12----------------------------------12--|
|-----------------------------------------------------------------------------------|
|
|
|------------------------------------------------|
|--------------11-12-11--------------------------|
|--------11-12----------12-11--------------------|
|--11-12----------------------12-11-11-------11--|
|--------------------------------------12-11-----|
|------------------------------------------------|

Guitar II is silent


|Guitar III
|------------------------------------------------------------------------|
|------------------------------------------------------------------------|
|------------------------------------------------------------------------|
|-5~-------5.-------5~-------5.-------5~---------------5~----------------|
|-5~-------5.-------5~-------5.-------5~---------------5~----------------|
|-5~-------5.-------5~-------5.-------5~---------------5~----------------|


Then there’s the Harmony part, play it four times:

|Guitar I
|----------------------11-12-11----------------------------11-12-11------------------|
|----------------11-12----------12-11----------------11-12----------12-11------------|
|-12-11----11-12----------------------12-11----11-12----------------------12-11------|
|-------12----------------------------------12----------------------------------12---|
|------------------------------------------------------------------------------------|
|------------------------------------------------------------------------------------|


|--------------11-12-11--------------------------|
|--------11-12----------12-11--------------------|
|--11-12----------------------12-11-11-------11--|
|--------------------------------------12-11-----|
|------------------------------------------------|
|------------------------------------------------|


|Guitar II
|----------------------15-16-15----------------------------15-16-15-----------------|
|----------------15-16----------16-15----------------15-16----------16-15-----------|
|-16-15----15-16----------------------16-15----15-16----------------------16-15-----|
|-------16----------------------------------16----------------------------------16--|
|-----------------------------------------------------------------------------------|
|-----------------------------------------------------------------------------------|

|-------------15-16-15---------------------------|
|-------15-16----------16-15---------------------|
|-15-16----------------------16-15-15-------15---|
|-------------------------------------16-15------|
|------------------------------------------------|
|------------------------------------------------|

|Guitar III
|----------------------------------------------|
|----------------------------------------------|
|----------------------------------------------|
|-00000000-55555555-1010101010101010-5555-4444-|
|-00000000-55555555-1010101010101010-5555-4444-|
|-00000000-55555555-1010101010101010-5555-4444-|



Re-entry
Guitars I and II
|-----------------------------------------------------------------|
|-----------------------------------------------------------------|
|-----------------------------------------------------------------|
|-xxxxxxxxxxxxxxxxxxxxxxxxxxxxxxxxxxxxxxxxxxxxxxxxxxxxxxxxxxxxxxx-|
|-xxxxxxxxxxxxxxxxxxxxxxxxxxxxxxxxxxxxxxxxxxxxxxxxxxxxxxxxxxxxxxx-|
|-xxxxxxxxxxxxxxxxxxxxxxxxxxxxxxxxxxxxxxxxxxxxxxxxxxxxxxxxxxxxxxx-|

Violin
|-----------------------------------------------------------------|
|-8-7-8-10-8-10-12-10-8-----10-8-7--------------------------------|
|-----------------------9~---------9~-----------------------------|
|-----------------------------------------------------------------|
|-----------------------------------------------------------------|
|-----------------------------------------------------------------|


Repeat Chorus

Outro
Both Guitars
|----------------------------------|
|----------------------------------|
|-99---77---55---------------------|
|-xx---xx---xx--7p0-9p0-10p0h9p0-0-|
|-77---55---33-------------------0-|
|--------------------------------0-|

And there you go.

*Please Rate*


Key
-----
PM - Palm Mute
. - Staccato Note
b - bend
d - Bend Down
x - Mute Note
t - trill picking





Comments


Popular I Am Ghost tabs & chords
Beyond The Hourglass Tabs
Beyond The Hourglass 1 Tabs
Bone Garden Tabs
Buried Way Too Shallow Tabs
Dark Carnival Of The Immaculate Intro Tabs
Dont Wake Up Intro Tabs
Killer Likes Candy 3 Tabs
Of Masques And Martyrs Tabs
Of Masques And Martyrs Intro Tabs
Smile Of A Jesus Freak Tabs


Song lyrics



↑ Back to top | Tablatures and chords are parodies/interpretations of the original songs. You may use it for private study, scholarship, research or language learning purposes only
© 2014 AZChords.com Contact us | Privacy policy | DMCA | Add/correct tabs | Request tabs | Top 50 tabs