» » »

I Am Ghost, Burn The Bodies To The Ground Tabs (ver.1)

Artists:  A B C D E F G H I J K L M N O P Q R S T U V W X Y Z # 

Burn The Bodies To The Ground Tabs (ver.1)

I Am Ghost Tabs
Rating:
5/5 (2 votes)
Burn The Bodies To The Ground lessons Tabs too difficult? Try these video lessons and learn fast
                I AM GHOST - BURN THE BODIES TO THE GROUND
DROPPED C TUNING (CGCFAD) 

err workin my way through through the album, and this was a request, so i
did it. i've moved onto the drop C songs now, so re-tune your guitar..
its not hard at all, but sounds quite good. so go for it. 
comment with any corrections you have.
cheeeers.
oh and have a look at my other i am ghost tabs (Y) good lad.

legend: 

| b    bend 
| r    return 
| /    slide up 
| \    slide down 
| h    hammer on 
| p    pull off 
| *    pinch harmonic 
| ~    tremolo 
| ...  palm muted 
| x    muted note 
| (n)  optional note 
| tp   tremolo picked
| ==   hold bend


INTRO:

|-------------------------------------------------------------------------|
|-------------------------------------------------------------------------|
|--------------------------------------------------------10-----9---------|
|-------7h8p7---7-------7h10p7---7-------7h8p7---7------------------10----|
|-------------8----------------8---------------8--------------------------|
|-0-0-0-----------0-0-0------------0-0-0-----------0-0-0----0-0---0----0--|


VERSE:

|----------------------------------|-8--8-8-8-8/11--11-11-11-11-|
|----------------------------------|-x--x-x-x-x--x---x--x--x--x-|
|----------------------------------|-5--5-5-5-5/-8---8--8--8--8-|
|----------------------------------|----------------------------|
|----------------------------------|----------------------------|
|-0-0-7-7-8-8-5-5-7-7-3-3-5-5-2-2--|----------------------------|
       play 3 times

|----------------------------------|-8--8-8-8-8/6--6-6-6-6--|
|----------------------------------|-x--x-x-x-x-x--x-x-x-x--|
|----------------------------------|-5--5-5-5-5/3--8-8-8-8--|
|----------------------------------|------------------------|
|----------------------------------|------------------------|
|-0-0-7-7-8-8-5-5-7-7-3-3-5-5-2-2--|------------------------|
        play 3 times


CHORUS:

|-------------------------------------------------|
|-------------------------------------------------|
|-19-19-19-19-19-19-19-19-22-22-22-21-21-21\17-17-|
|--x--x--x--x--x--x--x--x--x--x--x--x--x--x--x--x-|
|-17-17-17-17-17-17-17-17-20-20-20-19-19-19\15-15-|
|-------------------------------------------------|

|-------------------------------------------------|
|-------------------------------------------------|
|-19-19-19-19-19-19-19-19-15-15-15-15-17-17-17-17-|
|--x--x--x--x--x--x--x--x--x--x--x--x--x--x--x--x-|
|-17-17-17-17-17-17-17-17-13-13-13-13-15-15-15-15-|
|-------------------------------------------------|

|-------------------------------------------------|
|-------------------------------------------------|
|-19-19-19-19-19-19-19-19-22-22-22-21-21-21\17-17-|
|--x--x--x--x--x--x--x--x--x--x--x--x--x--x--x--x-|
|-17-17-17-17-17-17-17-17-20-20-20-19-19-19\15-15-|
|-------------------------------------------------|

|-------------------------------------------------|
|-------------------------------------------------|
|-15-15-15-15-15-15-15-15-17-17-17-17-18-18-18-18-|
|--x--x--x--x--x--x--x--x--x--x--x--x--x--x--x--x-|
|-13-13-13-13-13-13-13-13-15-15-15-15-16-16-16-16-|
|-------------------------------------------------|


>REPEAT VERSE<
>REPEAT CHORUS<
>REPEAT CHORUS<


BRIDGE:

|-------------------------------------------------|
|----11----13----11----13----11----13----11----10-|
|-10----10----10----10----10----10----10----10----|
|-------------------------------------------------|
|-------------------------------------------------|
|-------------------------------------------------|

|----------------------------------------------------------|
|----------------------------------------------------------|
|-10-10-10-10-10-10-10-10--7-7-7-7-7-7-7-7-5-5-5-5-5-5-5-5-|
|--x--x--x--x--x--x--x--x--x-x-x-x-x-x-x-x-x-x-x-x-x-x-x-x-|
|--8--8--8--8--8--8--8--8--5-5-5-5-5-5-5-5-3-3-3-3-3-3-3-3-|
|----------------------------------------------------------|

|-------------------------------------------------|
|----11----13----11----13----11----13----11----10-|
|-10----10----10----10----10----10----10----10----|
|-------------------------------------------------|
|-------------------------------------------------|
|-------------------------------------------------|

|----------------------------------------------------------|
|----------------------------------------------------------|
|-10-10-10-10-10-10-10-10--7-7-7-7-7-7-7-7-5-5-5-5-5-5-5-5-|
|--x--x--x--x--x--x--x--x--x-x-x-x-x-x-x-x-x-x-x-x-x-x-x-x-|
|--8--8--8--8--8--8--8--8--5-5-5-5-5-5-5-5-3-3-3-3-3-3-3-3-|
|----------------------------------------------------------|

|-------------------------------------------------|
|----11----13----11----13----11----13----11----10-|
|-10----10----10----10----10----10----10----10----|
|-------------------------------------------------|
|-------------------------------------------------|
|-------------------------------------------------|

|----------------------------------------------------------|
|----------------------------------------------------------|
|-10-10-10-10-10-10-10-10--7-7-7-7-7-7-7-7-5-5-5-5-5-5-5-5-|
|--x--x--x--x--x--x--x--x--x-x-x-x-x-x-x-x-x-x-x-x-x-x-x-x-|
|--8--8--8--8--8--8--8--8--5-5-5-5-5-5-5-5-3-3-3-3-3-3-3-3-|
|----------------------------------------------------------|

|-------------------------------------------------|
|----11----13----11----13----11----13----11----10-|
|-10----10----10----10----10----10----10----10----|
|-------------------------------------------------|
|-------------------------------------------------|
|-------------------------------------------------|

|------------------------------------------|
|------------------------------------------|
|------------------------------------------|
|---------7h8-5h7-3h5---------/10-10-10-10-| x 2
|------------------------------------------|
|-0-0-0-0-------------0-0-0-0--------------|

|----------------------------|
|----------------------------|
|-3-3-3-3-3-3-3-3-5555555-6\-|
|-x-x-x-x-x-x-x-x-xxxxxxx-x--|
|-1-1-1-1-1-1-1-1-3333333-4\-|
|----------------------------|

>REPEAT CHORUS<
>REPEAT CHORUS<
>REPEAT INTRO<


ENDING:

|------------------------------|------------------------------|
|------------------------------|------------------------------|
|------------------------------|------------------------------|
|-12-0-0-10-0-0-15-0-14-0-12-0-|-12-0-0-10-0-0-15-0-14-0-17-0-| x 4
|------------------------------|------------------------------|
|------------------------------|------------------------------|

|-----------|
|-----------|
|-12-12-12\-|
|-13-13-13\-| on the fourth time through, end with this.
|-----------|
|-----------|

and thats it.
only like 2 songs to go, so nearly there..
            
Submit corrections

comments powered by Disqus
↑ Back to top | I Am Ghost Tabs for Burn The Bodies To The Ground. Lyrics for acoustic guitar and electric guitar. Tablatures and chords are parodies/interpretations of the original songs. You may use it for private study, scholarship, research or language learning purposes only