» » »

Buried Way Too Shallow Tabs (ver.1)

Artists:  A B C D E F G H I J K L M N O P Q R S T U V W X Y Z # 

Buried Way Too Shallow Tabs (ver.1)

I Am Ghost
Rating:
5/5 (3 votes)

Hard to play? Try these video lessons and learn fast.
                I AM GHOST - BURIED WAY TOO SHALLOW
DROPPED D TUNING (DADBGE)

working my way through the album, and this was a request. so i did.
its not too hard, though theres some awkward shapes here and there.
nothing impossible though really.
comment with any corrections you have.
cheeeers.
oh and have a look at my other i am ghost tabs (Y) good lad.

legend:

| b    bend
| r    return
| /    slide up
| \    slide down
| h    hammer on
| p    pull off
| *    pinch harmonic
| ~    tremolo
| ...  palm muted
| x    muted note
| (n)  optional note
| tp   tremolo picked
| ==   hold bend


INTRO:

|---------------------------------------------------------------|
|-6-5-------------6-5-------------6-5------------5--5-5-5-5-3-3-|
|-----5-------5-------5-------5-------5-------5-----------------|
|-------7---7-----------7---7-----------7---7-------------------|
|---------8---------------8---------------8---------------------|
|---------------------------------------------------------------|

|-------------------------------------------------------------|
|-5-3-------------5-3-------------5-3-------------------------|
|-----5-2---2-5-------5-2---2-5-------5-2---2-5---9--9---7-7--|
|---------2---------------2---------------2------10-10---9-9--|
|-------------------------------------------------------------|
|-------------------------------------------------------------|


HARMONIZED INTRO:

|------------------------------------------------------------------|
|-10-8-------------10-8-------------10-8------------8--8-8-8-8-6-6-|
|------9-7---7-9--------9-7---7-9--------9-7---7-9-----------------|
|----------7----------------7----------------7---------------------|
|------------------------------------------------------------------|
|------------------------------------------------------------------|

|-------------------------------------------------------------|
|-8-6-5-------5---8-6-5-------5---8-6-5-------5---------------|
|-------5---5-----------5---5-----------5---5-----9--9---7-7--|
|---------7---------------7---------------7------10-10---9-9--|
|-------------------------------------------------------------|
|-------------------------------------------------------------|


VERSE:

|-------------------------------------|-------------------------------------|
|-------------------------------------|-------------------------------------|
|-14-14-14-14-16-16-16-16-17-17-17-17-|-17-17-17-17-19-19-19-19-17-17-17-17-|
|--x--x--x--x--x--x--x--x--x--x--x--x-|--x--x--x--x--x--x--x--x--x--x--x--x-|
|-12-12-12-12-14-14-14-14-15-15-15-15-|-15-15-15-15-17-17-17-17-15-15-15-15-|
|-------------------------------------|-------------------------------------|

|-------------------------------------------------------------|
|-------------------------------------------------------------|
|-16-16-16-16-16-16-16-16-21-21-21-21-21-21-21-21-21-21-21-21-|
|--x--x--x--x--x--x--x--x--x--x--x--x--x--x--x--x--x--x--x--x-|
|-14-14-14-14-14-14-14-14-19-19-19-19-19-19-19-19-19-19-19-19-|
|-------------------------------------------------------------|

|----------------------------------|
|----------------------------------|
|-19-19\17-17\16-16\14-14\10-10-10-|
|--x--x--x--x--x--x--x--x--x--x--x-|
|-17-17\15-15\14-14\12-12\-8--8--8-|
|----------------------------------|


>REPEAT VERSE<


PRECHORUS:

|-------------------------------|----------------------------------|
|-------------------------------|----------------------------------|
|-------------------------------|--------------------5-------------|
|-3-3-3-3-3-3-3--5-5-5-5-5-5-5--|-------7----------8---8-7-8-7-5---|
|-1-1-1-1-1-1-1--3-3-3-3-3-3-3--|-5-7-8---8-7-5-7----------------8-|
|-------------------------------|----------------------------------|

|-------------------------------|----------------|
|-------------------------------|----------------|
|-------------------------------|----------------|
|-3-3-3-3-3-3-3--5-5-5-5-5-5-5--|-------5-7-5----|
|-1-1-1-1-1-1-1--3-3-3-3-3-3-3--|-5-7-8-------8~-|
|-------------------------------|----------------|


CHORUS:
now i cba to type out each chord the exact number of times but i thnk its
8 of each chord. so go listen and figure it out.

|-------------------------------------------------|
|-------------------------------------------------|
|-14-14-14-14-10-10-10-10-17-17-17-17-12-12-12-12-|
|--x--x--x--x--x--x--x--x--x--x--x--x--x--x--x--x-|
|-12-12-12-12--8--8--8--8-15-15-15-15-10-10-10-10-|
|-------------------------------------------------|

|------------------------------------------------|
|------------------------------------------------|
|-14-14-14-14-10-10-10-10-12-12-12-12-12-12--13--|
|--x--x--x--x--x--x--x--x--x--x--x--x--x--x---x--|
|-12-12-12-12--8--8--8--8-10-10-10-10-10-10--11--|
|------------------------------------------------|

|-------------------------------------------------|
|-------------------------------------------------|
|-14-14-14-14-10-10-10-10-12-12-12-12-17-17-17-17-|
|--x--x--x--x--x--x--x--x--x--x--x--x--x--x--x--x-|
|-12-12-12-12--8--8--8--8-15-15-15-15-10-10-10-10-|
|-------------------------------------------------|

|------------------------------|
|------------------------------|
|------------------------------|
|------------------------------|
|-2-2-2--2-2-2-2--2-3-3~---5~--|
|-2-2-2--2-2-2-2--2-3-3~---5~--|


>REPEAT VERSE<
but the first time through, only guitar 2 plays.
guitar 2:

|-----------------------------------------|
|-----------------------------------------|
|-----------------------------------------|
|-----------------------------------------|
|-3--3-----3-3-3--3\---3-5--0--0----0-0-0-|
|-3--3-----3-3-3--3\---3-5--0--0----0-0-0-|


CLEAN BRIDGE:
i duno if this is right, cus i cant hear it properly. but as a guess..

|------------------------------|----------------------------|
|--------1----0----0---0h1p0---|-------1---0----0---0h1p0---|
|------2----2----2---2-------2-|---2-----2----2---2-------2-|
|----2-------------------------|--3--3----------------------|
|-0----------------------------|-3--------------------------|
|------------------------------|----------------------------|
                                 ^rake


DISTORTED BRIDGE:
once again, im not going to tab each chord like 16 times. just figure out
the rhythm.

|---------------------------------|
|---------------------------------|
|-17----24----21----19--17-16-17--|
|--x-----x-----x-----x---x--x--x--|
|-15----22----19----17--15-14-15--|
|---------------------------------|


DISTORTED BRIDGE ENDING:

|--------------------------------------|
|--------------------------------------|
|--------------------------------------|
|--------------------------------------|
|-2-2-2-2-2-2-2-2--3-3-3-3--5~--5h6-7--|
|-2-2-2-2-2-2-2-2--3-3-3-3--5~--5h6-7--|


>REPEAT CHORUS<
>REPEAT CHORUS<

AT THE END, GUITAR 2 PLAYS THE HARMONIZED INTRO, BUT TREMOLO PICKS EACH
NOTE. IF YOU HAVE A LISTEN YOU'LL BE ABLE TO HEAR IT. IM NOT GOING TO TAB
IT AGAIN, BECAUSE IT IS JUST THE HARMONY PLAYED SLOWER AND TREMOLO PICKED.

and that's it. go nuts.
comment with any corrections.. i'm sure there'll be some.
cheers
            
Hard to play? Try these video lessons and learn fast. | Correct




comments powered by Disqus
↑ Back to top | Tablatures and chords are parodies/interpretations of the original songs. You may use it for private study, scholarship, research or language learning purposes only