» » »

I Am Ghost, Bone Garden Tabs (ver.1)

Artists:  A B C D E F G H I J K L M N O P Q R S T U V W X Y Z # 

Bone Garden Tabs (ver.1)

I Am Ghost Tabs
Rating:
4/5 (3 votes)
Bone Garden lessons Tabs too difficult? Try these video lessons and learn fast
                I AM GHOST - BONE GARDEN
DROPPED C TUNING (CGCFAD) 

err workin my way through through the album, and this was a request, so i
did it. i've moved onto the drop C songs now, so re-tune your guitar..
its not hard at all, but sounds quite good. so go for it. 
comment with any corrections you have.
cheeeers.
oh and have a look at my other i am ghost tabs (Y) good lad.

legend: 

| b    bend 
| r    return 
| /    slide up 
| \    slide down 
| h    hammer on 
| p    pull off 
| *    pinch harmonic 
| ~    tremolo 
| ...  palm muted 
| x    muted note 
| (n)  optional note 
| tp   tremolo picked
| ==   hold bend


INTRO PT.1:

|--------------------------------|
|--------------------------------|
|--------------------------------| x4
|--------------------------------|
|-3-0--0--0---3-0--0--0---3-0--0-|
|-3-0--0--0---3-0--0--0---3-0--0-|


INRO PT.2:

|--------------------------------------|-----------------------------------------|
|--------------------------------------|-----------------------------------------|
|-14-----------------------------------|-15--------------------------------------|
|-----15-12p0-14p0-15p0-14p0-15--14-12-|-----15-12p0-14p0-15-12p0-14p0-15--14-12-|
|--------------------------------------|-----------------------------------------|
|--------------------------------------|-----------------------------------------|

|-----------------------------------------|-----------------------|
|-----------------------------------------|-----------------------|
|-14--------------------------------------|-----------------------|
|-----15-12p0-14p0-15-12p0-14p0-15--14-12-|------12-----14---15---|
|-----------------------------------------|-13~-------------------|
|-----------------------------------------|---------0-0----0----0-|

|--------------------------------------|-----------------------------------------|
|--------------------------------------|-----------------------------------------|
|-14-----------------------------------|-15--------------------------------------|
|-----15-12p0-14p0-15p0-14p0-15--14-12-|-----15-12p0-14p0-15-12p0-14p0-15--14-12-|
|--------------------------------------|-----------------------------------------|
|--------------------------------------|-----------------------------------------|

|-------------------------------------------------|
|-------------------------------------------------|
|-17-17-14-14-------14-14-17-17-14-14-------14-14-|
|-------------15-15-------------------15-15-------|
|-------------------------------------------------|
|-------------------------------------------------|

|----------------------------------------------------------|
|----------------------------------------------------------|
|-17p14----17p14----17p14-18p14----18p14----18p14-18b19~~--|
|-------15-------15-------------15-------15----------------|
|----------------------------------------------------------|
|----------------------------------------------------------|


VERSE 1:

|--------------------------------------------------------------------------|
|--------------------------------------------------------------------------|
|--------------------------------------------------------------------------|
|--------------------------------------------------------------------------|
|-0--0---------------------------------0--0--------------------------------|
|-0--0-0-0--0-0-0-0--0-0-0-0--0-0-0-0--0--0-0-0--0-0-0-0--0-0-0-0--0-0-0-0-|

|-----------------------------------------------------------------------------|
|-----------------------------------------------------------------------------|
|--------------------------------------17--17-17-17-17-17-15--15-15-15-15-15--|
|---------------------------------------x---x--x--x--x--x--x---x--x--x--x--x--|
|-0--0---------------------------------15--15-15-15-15-15-13--13-13-13-13-13--|
|-0--0-0-0--0-0-0-0--0-0-0-0--0-0-0-0-----------------------------------------|

|--------------------------------------------------------------------------|
|--------------------------------------------------------------------------|
|--------------------------------------------------------------------------|
|--------------------------------------------------------------------------|
|-0--0---------------------------------5--5--------------------------------|
|-0--0-0-0--0-0-0-0--0-0-0-0--0-0-0-0--0--0-0-0--0-0-0-0--0-0-0-0--0-0-0-0-|

|-----------------------------------------------------------------|
|-----------------------------------------------------------------|
|(7)(7)--------------------17--17-17-17-17-17-15--15-15-15-15-15--|
|-x--x--8p0-8p0-8p0-8p0-0---x---x--x--x--x--x--x---x--x--x--x--x--|
|-5--5---------------------15--15-15-15-15-15-13--13-13-13-13-13--|
|-0--0------------------------------------------------------------|


CHORUS:
play through twice

|--------------------------------------------------------------------------------|
|--------------------------------------------------------------------------------|
|-14--14-14-14-14-14--10--10-10-10-10-10--12--12-12-12-12-12--15--15-15-15-15-15-|
|--x---x--x--x--x--x---x---x--x--x--x--x---x---x--x--x--x--x---x---x--x--x--x--x-|
|-12--12-12-12-12-12---8---8--8--8--8--8--10--10-10-10-10-10--13--13-13-13-13-13-|
|--------------------------------------------------------------------------------|

|-------------------------------------------------------------------------------|
|-------------------------------------------------------------------------------|
|-14--14-14-14-14-14--10--10-10-10-10-10--12--12-12-12-12-12--------------------|
|--x---x--x--x--x--x---x---x--x--x--x--x---x---x--x--x--x--x--------------------|
|-12--12-12-12-12-12---8---8--8--8--8--8--10--10-10-10-10-10--1-1-1-1-1--1-1-1--|
|-------------------------------------------------------------1-1-1-1-1--1-1-1--|


PRE VERSE:

|-----------------------------------------------------|
|-----------------------------------------------------|
|-----------------------------------------------------|
|-----------------------------------------------------|
|-0-0-0-0-0-0-0-0--0-0-0-0-0-0-0--0-0-0-0-0-0-0--0-0~-|
|-0-0-0-0-0-0-0-0--0-0-0-0-0-0-0--0-0-0-0-0-0-0--0-0~-|


VERSE 2:

|-----------------------------------------------------|
|-----------------------------------------------------|
|-----------------------------------------------------|
|-----------------------------------------------------|
|------------------------------------------3-3-0-6-6--|
|-0-7h8-0-5h7--0-7h8-0-5h7--0-7h8-0-5h7--0-3-3-0-6-6--|

|-----------------------------------------------------|
|-----------------------------------------------------|
|-----------------------------------------------------|
|-----------------------------------------------------|
|------------------------------------------3-3-0-1-1--|
|-0-7h8-0-5h7--0-7h8-0-5h7--0-7h8-0-5h7--0-3-3-0-1-1--|

|-----------------------------------------------------|
|-----------------------------------------------------|
|-----------------------------------------------------|
|-0-7h8-0-5h7--0-7h8-0-5h7--0-7h8-0-5h7---------------|
|------------------------------------------3-3-0-6-6--|
|----------------------------------------0-3-3-0-6-6--|

|-----------------------------------------------------|
|-----------------------------------------------------|
|-----------------------------------------------------|
|-0-7h8-0-5h7--0-7h8-0-5h7--0-7h8-0-5h7---------------|
|------------------------------------------3-3-0-1-1--|
|----------------------------------------0-3-3-0-1-1--|

|----------------------------------------------------|
|----------------------------------------------------|
|----------------------------------------------------|
|----------------------------------------------------|
|-0--0-0-0--0--0-0-0--0-0-0-0--0--0-0-0--0--0-0-0--0-|
|-0--0-0-0--0--0-0-0--0-0-0-0--0--0-0-0--0--0-0-0--0-|


>REPEAT CHORUS<
but at the end of the chorus, add:

|-----------------------------------------|-----------------------------------------|
|-----------------------------------------|-----------------------------------------|
|-14--------------------------------------|-15--------------------------------------|
|-----15-12p0-14p0-15-12p0-14p0-15--14-12-|-----15-12p0-14p0-15-12p0-14p0-15--14-12-|
|-----------------------------------------|-----------------------------------------|
|-----------------------------------------|-----------------------------------------|

|-----------------------------------------|-----------------------|
|-----------------------------------------|-----------------------|
|-14--------------------------------------|-----------------------|
|-----15-12p0-14p0-15-12p0-14p0-15--14-12-|------12-----14---15---|
|-----------------------------------------|-13~-------------------|
|-----------------------------------------|---------0-0----0----0-|

|-----------------------------------------|-----------------------------------------|
|-----------------------------------------|-----------------------------------------|
|-14--------------------------------------|-15--------------------------------------|
|-----15-12p0-14p0-15-12p0-14p0-15--14-12-|-----15-12p0-14p0-15-12p0-14p0-15--14-12-|
|-----------------------------------------|-----------------------------------------|
|-----------------------------------------|-----------------------------------------|

|-------------------------------------------------|
|-------------------------------------------------|
|-17-17-14-14-------14-14-17-17-14-14-------14-14-|
|-------------15-15-------------------15-15-------|
|-------------------------------------------------|
|-------------------------------------------------|


SOLO:

|---------------------------------------------|
|---------------------------------------------|
|-15~--12-14-15-14---------------------7-9-10-|
|------------------15-12--8-7-5-7-8-10--------|
|---------------------------------------------|
|---------------------------------------------|

|------------------|-------------------|-------------------------|
|------------------|-------------------|-------------------------|
|-9p7-7-7-10p7-7-7-|-10p9-9-9-12p9-9-9-|-12p10-10-10-14p10-10-10-|
|------------------|-------------------|-------------------------|
|------------------|-------------------|-------------------------|
|------------------|-------------------|-------------------------|
   play twice          play twice          play twice

|-------------------------|-------------------13h15-15b17~-15b17r15-13-12-13~-|
|-------------------------|----------13h15h17---------------------------------|
|-14p12-12-12-15p12-12-12-|-14h15h17------------------------------------------|
|-------------------------|---------------------------------------------------|
|-------------------------|---------------------------------------------------|
|-------------------------|---------------------------------------------------|

|-10-12p10-10-10-13p10-10-10-|-13p12-12-12-15p12-12-12--|-15p13-13-13-17p13-13-13-|
|----------------------------|--------------------------|-------------------------|
|----------------------------|--------------------------|-------------------------|
|----------------------------|--------------------------|-------------------------|
|----------------------------|--------------------------|-------------------------|
|----------------------------|--------------------------|-------------------------|
         play twice                  play twice                play twice

|-15h17h18~--17h18h20~--18h20h22\\--|
|-----------------------------------|
|-----------------------------------|
|-----------------------------------|
|-----------------------------------|
|-----------------------------------|


>REPEAT CHORUS<
>REPEAT CHORUS<

ENDING:

|-----------------------------------------|-----------------------------------------|
|-----------------------------------------|-----------------------------------------|
|-14--------------------------------------|-15--------------------------------------|
|-----15-12p0-14p0-15-12p0-14p0-15--14-12-|-----15-12p0-14p0-15-12p0-14p0-15--14-12-|
|-----------------------------------------|-----------------------------------------|
|-----------------------------------------|-----------------------------------------|

|-------------------------------------------------|
|-------------------------------------------------|
|-17-17-14-14-------14-14-17-17-14-14-------14-14-|
|-------------15-15-------------------15-15-------|
|-------------------------------------------------|
|-------------------------------------------------|

|---------------------|
|---------------------|
|-15~--12-14-15-14~~--|
|---------------------|
|---------------------|
|---------------------|


and thats it. should be up to the standard of my other tabs, so have fun.
dont forget to rate and comment, and cheers for looking.
            

comments powered by Disqus
↑ Back to top | I Am Ghost Tabs for Bone Garden. Lyrics for acoustic guitar and electric guitar. Tablatures and chords are parodies/interpretations of the original songs. You may use it for private study, scholarship, research or language learning purposes only