» » »

I Am Ghost, Beyond The Hourglass Tabs (ver.2)

Artists:  A B C D E F G H I J K L M N O P Q R S T U V W X Y Z # 

Beyond The Hourglass Tabs (ver.2)

I Am Ghost Tabs
Rating:
4/5 (8 votes)
Hard to play? Try these video lessons and learn fast.
                Yo what up gangsters.
Song- Beyond The Hourglass
CD - Lovers Requiem.
This took me a while, so uh, enjoy?

BTW!
b-Bendy!
Wb-WIDE BENDY
~ sustained
T-trembolo (uberpicking)
Drop C (CGCFAD)

Intro Riff: (0:0 - 0:42)
|----0--------0-------------------------------------|
|1h0---x4-------0--x4------1h0--x4-----1h0--x4------|
|-----------0------------2----------3---------------|x4
|---------------------------------------------------|
|---------------------------------------------------|
|---------------------------------------------------|

Chorus (part 1): (0:42 - 0:49)
|-------------------------------------------------------|
|-------------------------------------------------------|
|-------------------------------------------------------|
|-7-7-7-7-7-7-7-7-5-5-5-5-5-5-5-5-0-0-0-0-0-0-0-0-------|
|-7-7-7-7-7-7-7-7-5-5-5-5-5-5-5-5-0-0-0-0-0-0-0-0-------|
|-7-7-7-7-7-7-7-7-5-5-5-5-5-5-5-5-0-0-0-0-0-0-0-0-------|
"Save us......... Evil.........To-night............"

Chorus (part 2): (0:50 - 0:52)
|-------------------------------------------------------|
|-------------------------------------------------------|
|-------------9----------12-------19--------------------|
|-------------x-----------X--------x--------------------|
|-------------7----------10-------17--------------------|
|---000--000-----000-000----0-0-0-----------------------|
                           ...  ...     ... ...    . . .

Chorus (part 3): (0:42 - 0:49)
|------------------------------------------------------------|
|------------------------------------------------------------|
|------------------------------------------------------------|
|-7-7-7-7-7-7-7-7-5-5-5-5-5-5-5-5-0-0-0-0-0-0-0-0-0-0-1-1-1--|
|-7-7-7-7-7-7-7-7-5-5-5-5-5-5-5-5-0-0-0-0-0-0-0-0-0-0-1-1-1--|
|-7-7-7-7-7-7-7-7-5-5-5-5-5-5-5-5-0-0-0-0-0-0-0-0-0-0-1-1-1--|
"Cremate......... Left.......... You............"

Riff: (1:02 - 1:11)
|-----------------------------------------------------------|
|-----------------------------------------------------------|
|--------------------------------------------------13-13-13-|
|----------------------4h3--------------------------x--x--x-|
|-0h1-1/3--0h3h4-0h3h4----4h3--x3--0h1-1/3-0h3h4 --11-11-11-|
|-----------------------------------------------------------|

Verse:
|-------------------------------------------------------|
|-------------------------------------------------------|
|---------9-9-9--10-10-10--17--17--17-------------------|
|-7-7-7---x-x-x--x--x--x---x---x---x-----x2-------------|
|-7-7-7---7-7-7--8--8--8---15--15--15-------------------|
|-7-7-7-------------------------------------------------|


|-------------------------------------------------------------------------------|
|-------------------------------------------------------------------------------|
|---15-15-15--17-17-17--19-19-19--20-20-20---15-15-15--17-17-17--21-21-21-21-21-|
|---x--x--x---x--x--x---x--x--x---x--x--x----x--x--x---x--x--x----x--x--x--x--x-|
|---13-13-13--15-15-15--17-17-17--18-18-18---13-13-13--15-15-15--19-19-19-19-19-|
|-------------------------------------------------------------------------------|
          (first and second part of the verse, repeat x2)


Chorus (part 1): (1:31 - 1:38)
|-------------------------------------------------------|
|-------------------------------------------------------|
|-------------------------------------------------------|
|-7-7-7-7-7-7-7-7-5-5-5-5-5-5-5-5-0-0-0-0-0-0-0-0-------|
|-7-7-7-7-7-7-7-7-5-5-5-5-5-5-5-5-0-0-0-0-0-0-0-0-------|
|-7-7-7-7-7-7-7-7-5-5-5-5-5-5-5-5-0-0-0-0-0-0-0-0-------|
"Save us......... Evil.........To-night............"

Chorus (part 2): (1:39 - 1:41)
|-------------------------------------------------------|
|-------------------------------------------------------|
|-------------9----------12-------19--------------------|
|-------------x-----------X--------x--------------------|
|-------------7----------10-------17--------------------|
|---000--000-----000-000----0-0-0-----------------------|
    ...  ...     ... ...    . . .

Chorus (part 3): (1:41 - 1:51)
|------------------------------------------------------------|
|------------------------------------------------------------|
|------------------------------------------------------------|
|-7-7-7-7-7-7-7-7-5-5-5-5-5-5-5-5-0-0-0-0-0-0-0-0-0-0-1-1-1--|
|-7-7-7-7-7-7-7-7-5-5-5-5-5-5-5-5-0-0-0-0-0-0-0-0-0-0-1-1-1--|
|-7-7-7-7-7-7-7-7-5-5-5-5-5-5-5-5-0-0-0-0-0-0-0-0-0-0-1-1-1--|
"Cremate......... Left.......... You............"


Violin, enters

Guitar kicks back in at 2:01
I'm actually 100% sure this is NOT correct, this is the only portion of this i cant 
so i appologize, feel free to follow my example and kinda makeshift the rest of this bridge 
so.
|------------------------------------------------|
|--17-13-17----17-13------16-12-16----16-12------|
|---.--.--.-----.--.-------.--.--.-----.--.------|x until the riff kicks in.
|------------------------------------------------|
|------------------------------------------------|
|------------------------------------------------|

Riff: (2:40 - 2:50)
|-----------------------------------------------------------|
|-----------------------------------------------------------|
|--------------------------------------------------13-13-13-|
|----------------------4h3--------------------------x--x--x-|
|-0h1-1/3--0h3h4-0h3h4----4h3--x3--0h1-1/3-0h3h4 --11-11-11-|
|-----------------------------------------------------------|


Chorus:

Chorus (part 1): (2:50 - 2:57)
|-------------------------------------------------------|
|-------------------------------------------------------|
|-------------------------------------------------------|
|-7-7-7-7-7-7-7-7-5-5-5-5-5-5-5-5-0-0-0-0-0-0-0-0-------|
|-7-7-7-7-7-7-7-7-5-5-5-5-5-5-5-5-0-0-0-0-0-0-0-0-------|
|-7-7-7-7-7-7-7-7-5-5-5-5-5-5-5-5-0-0-0-0-0-0-0-0-------|
"Save us......... Evil.........To-night............"

Chorus (part 2): (2:57 - 3:00)
|-------------------------------------------------------|
|-------------------------------------------------------|
|-------------9----------12-------19--------------------|
|-------------x-----------X--------x--------------------|
|-------------7----------10-------17--------------------|
|---000--000-----000-000----0-0-0-----------------------|
    ...  ...     ... ...    . . .

Chorus (part 3): (3:00 - 3:09)
|------------------------------------------------------------|
|------------------------------------------------------------|
|------------------------------------------------------------|
|-7-7-7-7-7-7-7-7-5-5-5-5-5-5-5-5-0-0-0-0-0-0-0-0-0-0-1-1-1--|
|-7-7-7-7-7-7-7-7-5-5-5-5-5-5-5-5-0-0-0-0-0-0-0-0-0-0-1-1-1--|
|-7-7-7-7-7-7-7-7-5-5-5-5-5-5-5-5-0-0-0-0-0-0-0-0-0-0-1-1-1--|
"Cremate......... Left.......... You............"


BREAKDOWN
(3:10 - end of the song) It plays behind the solo as guitar two.
|-------------------------------------------------------------------------------|
|-------------------------------------------------------------------------------|
|-------------------------------------------------------------------------------|
|--------------7-7-7-7-7-7-7-7-5-5-5-5-5-5-5-5-0-0-0-0-0-0-0-0-3-3-3-3-3--6-6-6-|
|--------------7-7-7-7-7-7-7-7-5-5-5-5-5-5-5-5-0-0-0-0-0-0-0-0-3-3-3-3-3--6-6-6-|
|7-7-7-7-7-7-7-7-7-7-7-7-7-7-7-5-5-5-5-5-5-5-5-0-0-0-0-0-0-0-0-3-3-3-3-3--6-6-6-|
........................................................................................
Thats not the correct number of 7's on the top C string, im just using that to show you 
you play at the beginning of the breakdown, do NOT repeat that if your playing second 
in the backround.

Solo:
This is the section where the song gets shifty
I have multiple parts of the solo
but not all.
I will label times during the song, and the tabs, good luck.
If you cant get it, just wing the breakdown.

(starting at 3:35-
|------------------------------------------------------------------------------------------------|
|------------------------------------------------------------------------------------------------|
|------------------------------------------------------------------------------------------------|
|-8-10p9p8-11p10p9-8-10--8-10p9h8-11p10p9-8~---10-10-11-10-13-10-11-10(pause)10-11-10-13-10-11-10|
|------------------------------------------------------------------------------------------------|
|------------------------------------------------------------------------------------------------|

|------------------------------------------------------------------------------------------------|
|------------------------------------------------------------------------------------------------|
|------------------------------------------------------------------------------------------------|
|--17p15p14-15p14p12-14p12p11-12p11p10-10b/11b--10p8p7-9p8p6-8p7p6-7p5p4-6p5p3-3/8---------------|
|------------------------------------------------------------------------------------------------|
|------------------------------------------------------------------------------------------------|

---Break in solo---

(3:47)
|17~--19-20-19-17---19-20-19-17---------------------------------|
|----------------17-------------17--20b--20p18p17-17p16p15-16b--|
|---------------------------------------------------------------|
|---------------------------------------------------------------|
|---------------------------------------------------------------|
|---------------------------------------------------------------|

|-10h12h13-13p12p10-12p10p9-10p8p7-8p6p5-5p3p2-------1~/3~/4------|
|-----------------------------------------------------------------|
|-----------------------------------------------------------------|
|-----------------------------------------------------------------|
|-----------------------------------------------------------------|
|-----------------------------------------------------------------|

Violin. Just play the breakdown.

(4:15)
|--------------------------------------------------------------------------|
|--------------------------------------------------15-15-14-14-17-17-15-15-|
|--15b-----17b17b17b-------15-15-14-14-17-17-15-15-------------------------|
|------15b-----------15b---------------------------------------------------|
|--------------------------------------------------------------------------|
|--------------------------------------------------------------------------|

|---15-15-14-14-181818/17-------------------------|
|-----------------------17/16---------------------|
|-------------------------------------------------|
|-------------------------------------------------|
|--------------------------------------------=----|
|-------------------------------------------------|

|----------------------------------------7b-5b-10b--------------|
|-------------------------------------10b-----------------------|
|---15p13p12-x8-13p11p10-x8-10p8p7-x8---------------------------|
|---------------------------------------------------------------|
|---------------------------------------------------------------|
|---------------------------------------------------------------|

|----------------------------------------------------------------------------------|
|------------------------------15--------------------------------------------------|
|---15b----14-15-17-15-14-15wb----14-15-17-15-14-15p14h15p14---15p14h15p14---------|
|-------15--------------------------------------------------15------------15-------|
|----------------------------------------------------------------------------------|
|----------------------------------------------------------------------------------|

|-----------------------------------------------------------------------------------------------|
|----------------------17-----------18---17-15-13-----17-15-13----17-15-13----17-15-13----------|
|--14h15h17b--14-15-17-----15-17-18---------------13-----------13----------13---------13--------|
|-----------------------------------------------------------------------------------------------|
|-----------------------------------------------------------------------------------------------|
|-----------------------------------------------------------------------------------------------|

|--------------------------------------------------------------16-17-18-19-|
|---13-15-17---13-15-17----13-15-17---13-15-17---16-17-18-19-20-t--t--t--t-|
|-13---------13---------13----------13------------t--t--t--t--t------------|
|--------------------------------------------------------------------------|
|--------------------------------------------------------------------------|
|--------------------------------------------------------------------------|

|---------------------------------------------------------------|
|-19-17-15------------------------------------------------------|
|----------17-15-13---------------------------------------------|
|-------------------15-12-10------------------------------------|
|---------------------------------------------------------------|
|---------------------------------------------------------------|
            

comments powered by Disqus
↑ Back to top | I Am Ghost Tabs for Beyond The Hourglass. Lyrics for acoustic guitar and electric guitar. Tablatures and chords are parodies/interpretations of the original songs. You may use it for private study, scholarship, research or language learning purposes only