>
 >
Beyond The Hourglass

Beyond The Hourglass Guitar Tabs

I Am Ghost - Beyond The Hourglass chords, tabs, tablatures, lyrics

Guitar lessons | Add/correct | Request | Top 50 tabs Artists:  A B C D E F G H I J K L M N O P Q R S T U V W X Y Z 0-9

Beyond The Hourglass Guitar Tabs – I Am Ghost

CD, Sheet music, Poster

Do you like Beyond The Hourglass? Share with your friends now
TabsTabs v2
Tuning: Drop C (CGCFAD)

Hello, this tab took a while. Such a long solo...
Itís probably 95%+ right, since itís all by ear. Iíll take any comments or corrections. 

INTRO
3x
|-----0-------0-------0-------0-------0-------0-------0-------0------|
|---1---1---1---1---1---1---1---1---1---1---1---1---1---1---1---1----|
|-2-------2-------2-------2-------0-------0-------0-------0----------|
|--------------------------------------------------------------------|
|--------------------------------------------------------------------|
|--------------------------------------------------------------------|

|-----0-------0-------0-------0-------0-------0-------0-------0------|
|---1---1---1---1---1---1---1---1---1---1---1---1---1---1---1---1----|
|-2-------2-------2-------2------------------------------------------|
|---------------------------------3-------3-------3-------3----------|
|--------------------------------------------------------------------|
|--------------------------------------------------------------------|

CHORUS
Guitar I and II (No Violin)
|-------------------------------------------------------------------------|
|-------------------------------------------------------------------------|
|----------------------------------------------------------3-------5----7-|
|-7777777777777777-5555555555555555-0000000000000000----------------------|
|-7777777777777777-5555555555555555-0000000000000000-00-00---00-00---00---|
|-7777777777777777-5555555555555555-0000000000000000-00-00---00-00---00---|

|------------------------------------------------------------------------|
|------------------------------------------------------------------------|
|------------------------------------------------------------------------|
|-7777777777777777-5555555555555555-0000000000000000-33333333-55555555-7-|
|-7777777777777777-5555555555555555-0000000000000000-33333333-55555555-7-|
|-7777777777777777-5555555555555555-0000000000000000-33333333-55555555-7-|


RE-ENTRY (Guitar II only, lead guitar and violin come in at 3rd time)
3x                                4th time
|--------------------------------|-------------------------------------|
|--------------------------------|-------------------------------------|
|--------------------------------|--------------4-4-4-4----------------|
|---------------------2h3-2------|--------------4-4-4-4----------------|
|-2-0-2-3--0-3-5--0-3-------3-2--|-2-0-2-3--0-3-2-2-2-2----------------|
|--------------------------------|-------------------------------------|



VERSE
Lead and Violin 2x
|-------------------------------------------------------------------------|
|-------------------------------------------------------------18181818----| 
|-14--9--10--17----14--9--10--17----14--15--17--19----15--17--x-x-x-x-----| 
|-x---x--x---x-----x---x--x---x-----x---x---x---x-----x---x---15151515----| 
|-12--7--8---15----12--7--8---15----12--13--15--17----13--15--------------|  
|-------------------------------------------------------------------------| 
The Violin should use the top note of the octave 

Rhythm 2x
|---------------------------------------------------|
|---------------------------------------------------|
|-7777-----------10101010-7777-----------10101010---|
|-7777-7777-8888-10101010-7777-7777-8888-10101010---|
|-5555-7777-8888-8-8-8-8--5555-7777-8888-8-8-8-8----|
|------7777-8888---------------7777-8888------------|

|-----------------------------------------------------|
|-----------------------------------------------------|
|-----------------------------------1212121212121212--|
|-5555-7777-8888-10101010-7777-8888-1212121212121212--|
|-5555-7777-8888-10101010-7777-8888-1010101010101010--|
|-5555-7777-8888-10101010-7777-8888-------------------|


Repeat Chorus




Break 
Guitar (comes in at 2:10) 3x
|----------------------------------------------------------------------------------------------|
|----------------------------------------------------------------------------------------------|
|----------10-9-7-----------------------------------------7--10-9-7------9-7-------------------|
|-7-9-10----------10-9----7-9-10---10p9p7-10p9p7---7-9-10-----------10-9-----10-9--------------|
|----------------------10---------------------------------------------------------10--8-7-5--7-|
|----------------------------------------------------------------------------------------------|


Repeat RE-ENTRY
Repeat CHORUS 


BREAKDOWN
Rhythm Guitar Only
|------------------------------------|
|------------------------------------|
|------------------------------------|
|------------------------------------|
|-7--777-7--7777777-7--777-7-7777777-|
|-7--777-7--7777777-7--777-7-7777777-|

Then both Guitars
|------------------------------------------------------------------------------------------------|
|------------------------------------------------------------------------------------------------|
|------------------------------------------------------------------------------------------------|
|------------------------------------------------------------------------------------------------|
|-777777-7--777-7--777777-555555-5--555-5--555555-000000-0--000-0--000000-333333-3-333333-555555-|
|-777777-7--777-7--777777-555555-5--555-5--555555-000000-0--000-0--000000-333333-3-333333-555555-|
  PM|--- -  --- -  ------ ------ -  --- -  ------ ------ -  --- -  ------ ------ - ------ ------

|-------------------------------------------------------------------------------------------|
|-------------------------------------------------------------------------------------------|
|-------------------------------------------------------------------------------------------|
|-------------------------------------------------------------------------------------------|
|-777777-7--777-7--777777-555555-5--555-5--555555-00000000000000000000000-33333333-55555555-|
|-777777-7--777-7--777777-555555-5--555-5--555555-00000000000000000000000-33333333-55555555-|
    PM|--- -  --- -  ------ ------ -  --- -  ------ ----------------------- -------- --------



SOLO

Rhythm Guitar - the whole way through
|----------------------------------------------------------------------|
|----------------------------------------------------------------------|
|----------------------------------------------------------------------|
|-7777777777777777-5555555555555555-0000000000000000-33333333-55555555-|
|-7777777777777777-5555555555555555-0000000000000000-33333333-55555555-|
|-7777777777777777-5555555555555555-0000000000000000-33333333-55555555-|

Guitar Solo
| Guitar I
|------------------------------------------------------------------|
|------------------------------------------------------------------|
|------------------------------------------------------------------|
|-7h9--p7-9p7h10p7-9p7-9p7h10p7--9h10--p9-10p9h12p9-10p9-10p9h12p9-|
|------------------------------------------------------------------|
|------------------------------------------------------------------|

|---------------------------------------------------------------------------------------------|
|---------------------------------------------------------------------------------------------|
|---------------------------------------------------------------------------------------------| 
|-14p12p10-12p10p9-10p9p7-8p7p5-9-/10---10p9p7--7-9-7----7------------------------------------|
|-----------------------------------------------------10---10--9h10p9-7h9p7-5h7p5-3h5p3-2h3p2-|
|---------------------------------------------------------------------------------------------|

|--------------------------------------19--19-20-19-17-----19-20-19-17--------------|
|----------------------------18-17--h18----------------17--------------17-----------|
|-------------------17-14-------------------------------------------------17-19b20--|
|----------17-14----------14--------------------------------------------------------|
|-14141414-------14-----------------------------------------------------------------|
|-----------------------------------------------------------------------------------|

|-----------------------------------------------------------------------------------------|
|------------------------------16p15p13-15p13p12-13p12p10-12p10p9-------------------------|
|-20191720191719b---12h14h15----------------------------------------------------------14~-|
|-----------------------------------------------------------------12----------14h16h17----|
|---------------------------------------------------------------------14h16h17------------|
|-----------------------------------------------------------------------------------------|

Violin Solo


Guitar and Violin Harmony
 
|-----------------------------88------1010------1212------1313------1515------17p15-----|
|--------------------------------1010------1212------1313------1515------1717-------17~-|
|-14~---/9----15b-15b~---/9-------------------------------------------------------------|
|---------------------------------------------------------------------------------------|
|---------------------------------------------------------------------------------------|
|---------------------------------------------------------------------------------------|

 Tapping here 
|--------------------------------------------------------------------------------------|
|--------------------------------------------------------------------------------------|
|--------------------------------------------------------------------------------------|
|-t19p7p0t19p7p0t19p7p0t19p7p0t17p5p0t17p5p0t17p5p0t17p5p0t15p3p0t15p3p0t15p3p0t15p3p0-|
|--------------------------------------------------------------------------------------|
|--------------------------------------------------------------------------------------|
|


|---------------------------------------------------------------------|
|---------------------------------------------------------------------|
|-13--14--15--16b--/17--14--14-16-17-16--14--16--12--12-14-16-14--12--|
|---------------------------------------------------------------------|
|---------------------------------------------------------------------|
|---------------------------------------------------------------------|


|---------------------------------------------------------------------------|
|-----------------------------------------------------15-----17-15-13-------|
|-------------------------------------12--14----16-------16-----------15-14-|
|-15p12h15p12----15p12h15p12----12-15--------15----17-----------------------|
|-------------12-------------12---------------------------------------------|
|---------------------------------------------------------------------------|


|------------------------------------------------------------------------------------------------|
|------------------------------------------------------------------------------------------------|
|-14-12-------14-12-------14-12-------14-12-------------11-12-------11-12-------11-12-------11-12|
|-------14----------14----------14----------14-------14----------14----------14----------14------|
|----------12----------12----------12----------12-12----------12----------12----------12---------|
|------------------------------------------------------------------------------------------------|


|------------------------------------------888-------------------------------|
|-------------------------------888-101010-----101010-888--------------------|
|----------------777-999-101010---------------------------999-777------------|
|-777-999-101010--------------------------------------------------999-777----|
|-------------------------------------------------------------------------10-|
|----------------------------------------------------------------------------|


Outro 4x
|------------------------------------------------------------------------------------------------|
|------------------------------------------------------------------------------------------------|
|------------------------------------------------------------------------------------------------|
|------------------------------------------------------------------------------------------------|
|-777777-7--777-7--777777-555555-5--555-5--555555-000000-0--000-0--000000-333333-3-333333-555555-|
|-777777-7--777-7--777777-555555-5--555-5--555555-000000-0--000-0--000000-333333-3-333333-555555-|
  PM|--- -  --- -  ------ ------ -  --- -  ------ ------ -  --- -  ------ ------ - ------ ------

And it ends with the Choir

And there you go.

*PLEASE RATE*

KEY--
--
PM = Palm Mute
h = hammer on
p = pull off
* = harmonic
/ = slide up
\ = slide down
x = mute note





Comments


Popular I Am Ghost tabs & chords
Those We Leave Behind Bass Tabs
Beyond The Hourglass 1 Tabs
Buried Way Too Shallow Tabs
Dark Carnival Of The Immaculate Intro Tabs
Don't Wake Up Tabs
Killer Likes Candy 3 Tabs
Our Friend Lazarus Sleeps Tabs
Saddest Story Never Told Tabs
Smile Of A Jesus Freak Tabs
This Is Home 2 Tabs


Song lyrics



↑ Back to top | Tablatures and chords are parodies/interpretations of the original songs. You may use it for private study, scholarship, research or language learning purposes only
© 2014 AZChords.com Contact us | Privacy policy | DMCA | Add/correct tabs | Request tabs | Top 50 tabs