» » »

I Against I, Top Of The World Bass tabs (ver.1)

Artists:  A B C D E F G H I J K L M N O P Q R S T U V W X Y Z # 

Top Of The World Bass tabs (ver.1)

I Against I Tabs
 Rating:
4/5 (4 votes)
Top Of The World lessons Tabs too difficult? Try these video lessons and learn fast
1
                I against I - Top of the World - Headcleaner
Dropped D tuning, > means play a couple of times, listen for timings.

Riff #1
F|--------------------------------------------------|
C|--------------------------------------------------|
G|5>-----------9-9-7------7-7-5-----------------4-4-|
D|---5-3>--7-7--------5-5--------3>-3-3-5-5-7-7-----|

Riff #2
F|---------|
C|---------|
G|---5>-4--|
D|5>-----7-|

Riff #3
F|-------------------------------------------|
C|-------------------------------------------|
G|-----2--2-5------4--4-7--------------------|
D|3--3--------5--5--------7>-7-7-5-5-7-7-5-5-|

Riff #4
F|----------------------|
C|----------------------|
G|------------------4-4-|
D|3>-5>-5-5-5-5-7-7-----|

Riff #5
F|-----------------------|
C|-----------------------|
G|7>-9-9-10>-5>-3>-5>-3>-|
D|-----------------------|

Riff #6
F|-------------|
C|-------------|
G|5--5-------5-|
D|-----3-3-3---|

*Order:*
#1 x 2
#2 x 2
#3 x 2
#4 x 1
#1 x 2
#2 x 2
#3 x 2
#4 x 1
#1 x 2
#5 x 2
#1 x 2
#6 x 1
            
Submit corrections

comments powered by Disqus
↑ Back to top | I Against I Bass for Top Of The World. Lyrics for acoustic guitar and electric guitar. 1 Tablatures and chords are parodies/interpretations of the original songs. You may use it for private study, scholarship, research or language learning purposes only