>
 >
Space Odyssey

Space Odyssey Guitar Tabs

I Against I - Space Odyssey chords, tabs, tablatures, lyrics

Guitar lessons | Add/correct | Request | Top 50 tabs Artists:  A B C D E F G H I J K L M N O P Q R S T U V W X Y Z 0-9

Space Odyssey Guitar Tabs – I Against I

CD, Sheet music, Poster

Do you like Space Odyssey? Share with your friends now
Tabs
i against i-space odyssey

e|-------------------------------------------------|
B|-------------------------------------------------|
G|-------------------------------------------------|
D|-77777777-99999999-1010101010101010-1212-5-555---|
A|-77777777-99999999-1010101010101010-1212-5-555---|
E|-55555555-77777777--8-8-8-8-8-8-8-8-1010-3-333---|

e|-------------------------------------|
B|-------------------------------------|
G|-------------------------------------|
D|-77777777-99999999-------------------|
A|-77777777-99999999-555---------------|
E|-55555555-77777777-----5b-5b-5b5b-55-|

e|-------------------------------------------------------|
B|-------------------------------------------------------|
G|-------------------------------------------------------|
D|-10\777777777777777\333333333333333-10\777777777777777-|
A|-10\777777777777777\333333333333333-10\777777777777777-|
E|--8\555555555555555\111111111111111--8\555555555555555-|

e|----------------------------------------------------|
B|----------------------------------------------------|
G|----------------------------------------------------|
D|-555555555555555-33-333333333333333-6-66-6666666-66-|
A|-555555555555555-33-333333333333333-6-66-6666666-66-|
E|-333333333333333-11-111111111111111-4-44-4444444-44-|
pm                    ...............

e|-----------------------------------------------------|
B|-----------------------------------------------------|
G|-----------------------------------------------------|
D|-33-333333333333333-66-x6-8~-------------------------|
A|-33-333333333333333-66-x6-8~-------------------------|
E|-11-111111111111111-44-x4-6~-------------------------|
pm    ...............

e|-----------------------------------------------------|
B|-----------------------------------------------------|
G|-----------------------------------------------------|
D|-10101010101010\9999999\7777777--33-3-55-5-----------|
A|-10101010101010\9999999\7777777--33-3-55-5-----------| x2
E|--8-8-8-8-8-8-8\7777777\5555555--11-1-33-3-----------|

e|----------------------------------------------------|
B|----------------------------------------------------|
G|----------------------------------------------------|
D|-1212121212121212121212-2222-3-33-3-33-3-33-32------|
A|-1212121212121212121212-2222-3-33-3-33-3-33-32------|
E|-1010101010101010101010-0000-1-11-1-11-1-11-10------|
pm                               ..   ..   ..
e|---------------------------------------------|
B|---------------------------------------------|
G|---------------------------------------------|
D|-1212121212121212121212-2222-3-3-333-5~------|
A|-1212121212121212121212-2222-3-3-333-5~------|
E|-1010101010101010101010-0000-1-1-111-3~------|

e|-----------------------------------------------------|
B|-----------------------------------------------------|
G|-----------------------------------------------------|
D|----333333333333/5/7-777-777-777-75-5-555-555-555-53-|
A|----333333333333/5/7-777-777-777-75-5-555-555-555-53-|
E|-5~\111111111111---5-555-555-555-53-3-333-333-333-31-|

e|------------------------------------|
B|------------------------------------|
G|------------------------------------|
D|-33333333333333-6-66-6-66-6-6666-66-|
A|-33333333333333-6-66-6-66-6-6666-66-|
E|-11111111111111-4-44-4-44-4-4444-44-|
pm ..............
e|---------------------------------|
B|---------------------------------|
G|---------------------------------|
D|-33333333333333-66-66-8~---------|
A|-33333333333333-66-66-8~---------|
E|-11111111111111-44-44-6~---------|
pm ..............
e|-----------------------------------------------------|
B|-----------------------------------------------------|
G|-----------------------------------------------------|
D|-10101010101010\9999999\7777777--33-3-55-5-----------|
A|-10101010101010\9999999\7777777--33-3-55-5-----------| x2
E|--8-8-8-8-8-8-8\7777777\5555555--11-1-33-3-----------|

e|----------------------------------------------------|
B|----------------------------------------------------|
G|----------------------------------------------------|
D|-1212121212121212121212-2222-3-33-3-33-3-33-32------|
A|-1212121212121212121212-2222-3-33-3-33-3-33-32------|
E|-1010101010101010101010-0000-1-11-1-11-1-11-10------|
pm                               ..   ..   ..
e|---------------------------------------------|
B|---------------------------------------------|
G|---------------------------------------------|
D|-1212121212121212121212-2222-3-3-x33-5~------|
A|-1212121212121212121212-2222-3-3-x33-5~------|
E|-1010101010101010101010-0000-1-1-x11-3~------|

e|-------------------------------------------------|
B|-------------------------------------------------|
G|-------------------------------------------------|
D|-77777777-99999999-1010101010101010-1212-5-555---|
A|-77777777-99999999-1010101010101010-1212-5-555---|
E|-55555555-77777777--8-8-8-8-8-8-8-8-1010-3-333---|

e|-------------------------------------------------|
B|-------------------------------------------------|
G|-------------------------------------------------|
D|-77777777-99999999-1010101010101010-1212-5-555---|
A|-77777777-99999999-1010101010101010-1212-5-555---|
E|-55555555-77777777--8-8-8-8-8-8-8-8-1010-3-333---|

e|-----------------------------------|
B|-----------------------------------|
G|-----------------------------------|
D|-7-77--9-99--10-1010--121212-5-555-|
A|-7-77--9-99--10-1010--121212-5-555-|
E|-5-55--7-77---8--8-8--101010-3-333-|

e|-----------------------------------------------------|
B|-----------------------------------------------------|
G|-----------------------------------------------------|
D|-7-77--9-99--10-1010---------------------------------|
A|-7-77--9-99--10-1010-555-----------------------------|
E|-5-55--7-77---8--8-8----5b-5b-5b5b-55----------------|

e|----------------------------------------------------|
B|----------------------------------------------------|
G|----------------------------------------------------|
D|-10~-----------9999999\7777777--33-3-55-5-----------|
A|-10~-----------9999999\7777777--33-3-55-5-----------|
E|--8~-----------7777777\5555555--11-1-33-3-----------|

e|-------------------------------------------|
B|-------------------------------------------|
G|-------------------------------------------|
D|-10101010101010\9999999\7777777\5555555\33-
A|-10101010101010\9999999\7777777\5555555\33-
E|--8-8-8-8-8-8-8\7777777\5555555\3333333\11-


e|-------------------------------------|
B|-------------------------------------|
G|-------------------------------------|
D|-33333333333333-55-555555555555555---|
A|-33333333333333-55-555555555555555---|
E|-11111111111111-33-333333333333333---|
pm ..............    ...............

e|-----------------------------------------|
B|-----------------------------------------|
G|-----------------------------------------|play this
D|-1010----------99------7------33-3-44-4--|until the
A|-1010-10101010-99-9999-7-7777-33-3-44-4--|end
E|--8-8----------77------5------11-1-22-2--|





Comments


Popular I Against I tabs & chords
Maybe Tomorrow Bass Tabs
Maybe Tomorrow 1 Bass Tabs
Ordinary Fight Bass Tabs
Ordinary Fight 1 Bass Tabs
Stumble And Stare Bass Tabs
Stumble And Stare 1 Bass Tabs
Top Of The World Bass Tabs
Nailed To The Floor Tabs
Ordinary Fight Tabs
Space Odessey Tabs


Song lyrics



↑ Back to top | Tablatures and chords are parodies/interpretations of the original songs. You may use it for private study, scholarship, research or language learning purposes only
© 2014 AZChords.com Contact us | Privacy policy | DMCA | Add/correct tabs | Request tabs | Top 50 tabs