>
 >
Space Odessey

Space Odessey Guitar Tabs

I Against I - Space Odessey chords, tabs, tablatures, lyrics

Guitar lessons | Add/correct | Request | Top 50 tabs Artists:  A B C D E F G H I J K L M N O P Q R S T U V W X Y Z 0-9

Space Odessey Guitar Tabs – I Against I

CD, Sheet music, Poster

Do you like Space Odessey? Share with your friends now
Tabs
Tuning       : Standard E

It took me 1 hour to fix this tab out, a pretty easy song from I against I.
There are some mistakes in the number of notes.
Suggestions or corrections then mail me.

X = palm muting
V = bending

e|-------------------------------------|
B|-------------------------------------|
G|-------------------------------------|
D|-000---------------------------------| 
A|-------------------------------------|
E|-----4-4-4-4-4-----------------------|
       v v v v v 
e|-------------------------------------|
B|-------------------------------------|
G|-------------------------------------|
D|-10--77777777777777--333333333333333-|
A|-10--77777777777777--333333333333333-|
E|--8--55555555555555--111111111111111-|
  Feel like I am in out of space

e|-------------------------------------|
B|-------------------------------------|
G|-------------------------------------|
D|-10--77777777777777--555555555555555-|
A|-10--77777777777777--555555555555555-|
E|--8--55555555555555--333333333333333-|

e|-------------------------------------|
B|-------------------------------------|
G|-------------------------------------|
D|-3—3333-333-3333--66666666-----------|
A|-3—3333-333-3333--66666666-----------|
E|-1—1111-111-1111--44444444-----------|
     xxxx xxx xxxx
  We have a problem now

e|-------------------------------------|
B|-------------------------------------|
G|-------------------------------------|
D|-3—3333-333-3333--66666-8------------|
A|-3—3333-333-3333--66666-8------------|
E|-1—1111-111-1111--44444-6------------|
     xxxx xxx xxxx

e|--------------------------------------------------------|
B|--------------------------------------------------------|
G|--------------------------------------------------------|
D|-10101010101010--9999999--7777777—-3-3--5-5-------------| X2
A|-10101010101010--9999999--7777777—-3-3--5-5-------------|
E|--8-8-8-8-8-8-8--7777777--5555555—-1-1--3-3-------------|
  Cuz I feel alone everywhere

e|--------------------------------------|
B|--------------------------------------|
G|-77777777777--------------------------|
D|-77777777777-3333-3-33-3-33-3-33-33---|
A|-55555555555-3333-3-33-3-33-3-33-33---|
E|-------------1111-1-11-1-11-1-11-11---|
                      xx   xx   xx                

e|---------------------------------------|
B|---------------------------------------|
G|-77777777777---------------------------|
D|-77777777777-3333-3----7----5----------|
A|-55555555555-3333-3----7----5-let ring-|
E|-------------1111-1----5----3----------|

e|---------------------------------------|
B|---------------------------------------|
G|---------------------------------------|
D|-7-------------------------------------|
A|-7--========================>----------|
E|-5-------------------------------------|
  I know I am different now

e|------------------------------------------------------------------------|
B|------------------------------------------------------------------------|
G|------------------------------------------------------------------------|
D|-10-777777777-55555555555-3-3333-333-3333-6666666-3333-333-3333-66666-8-|
A|-10-777777777-55555555555-3-3333-333-3333-6666666-3333-333-3333-66666-8-|
E|--8-555555555-33333333333-1-1111-111-1111-4444444-1111-111-1111-44444-6-|
                              xxxx xxx xxxx         xxxx xxx xxxx

e|--------------------------------------------------------|
B|--------------------------------------------------------|
G|--------------------------------------------------------|
D|-10101010101010--9999999--7777777—-3-3--5-5-------------| X2
A|-10101010101010--9999999--7777777—-3-3--5-5-------------|
E|--8-8-8-8-8-8-8--7777777--5555555—-1-1--3-3-------------|
  Cuz I’m feel alone everywhere

e|------------------------------------------------------------------|
B|------------------------------------------------------------------|
G|-77777777777------------------------77777777777-------------------|
D|-77777777777-3333-3-33-3-33-3-33-33-77777777777-3333--------------|
A|-55555555555-3333-3-33-3-33-3-33-33-55555555555-3333--------------|
E|-------------1111-1-11-1-11-1-11-11-------------1111--------------|
                      xx   xx   xx                
e|------------------------------------------------------------------|
B|------------------------------------------------------------------|
G|-----------------------------------------7------------------------|
D|-7---------------------------------------7-------5-----7----------|
A|-7--======>------------------------------5-------5-----7--======>-|
E|-5-----------------------------------------------3-----5----------|
  I just can’t crow                       say     ing

e|-------------------------------------|
B|-------------------------------------|
G|-------------------------------------|
D|-000---------------------------------| 
A|-------------------------------------|
E|-----4-4-4-4-4-----------------------|
       v v v v v 
e|---------------------------------------------------------------------------|
B|---------------------------------------------------------------------------|
G|---------------------------------------------------------------------------|   
D|-12-10101010101010-7777777—3-3--5-5-10101010101010-9999999-7777777-5555555-|    
A|-12-10101010101010-7777777—3-3--5-5-10101010101010-9999999-7777777-5555555-|
E|-10--8-8-8-8-8-8-8-5555555—1-1--3-3--8-8-8-8-8-8-8-7777777-5555555-3333333-|

e|-------------------------------------|
B|-------------------------------------|
G|-------------------------------------|
D|-3—3333-333-3333-3—3333-333-3333-----|
A|-3—3333-333-3333 3—3333-333-3333-----|
E|-1—1111-111-1111-1—1111-111-1111-----|
     xxxx xxx xxxx x xxxx xxx xxxx
     
e|-------------------------------------|
B|-------------------------------------|
G|-------------------------------------|
D|---5-5-----55------------------------| SOLO (play a couple of times)
A|-3-----3-2----3-0--------------------|
E|-------------------------------------|





Comments


Popular I Against I tabs & chords
Maybe Tomorrow Bass Tabs
Maybe Tomorrow 1 Bass Tabs
Ordinary Fight Bass Tabs
Ordinary Fight 1 Bass Tabs
Stumble And Stare Bass Tabs
Stumble And Stare 1 Bass Tabs
Top Of The World Bass Tabs
Nailed To The Floor Tabs
Ordinary Fight Tabs
Space Odyssey Tabs


Song lyrics



↑ Back to top | Tablatures and chords are parodies/interpretations of the original songs. You may use it for private study, scholarship, research or language learning purposes only
© 2014 AZChords.com Contact us | Privacy policy | DMCA | Add/correct tabs | Request tabs | Top 50 tabs