» » »

Ordinary Fight Tabs (ver.1)

Artists:  A B C D E F G H I J K L M N O P Q R S T U V W X Y Z # 

Ordinary Fight Tabs (ver.1)

I Against I
Rating:
5/5 (2 votes)

Hard to play? Try these video lessons and learn fast.
                -------------------------------------------------------------------------------
-------------------------------------------------------------------------------


NOTE: The band plays 1/2 a step down. So, if you don't want to play that
      half-power chord (in the pre-chorus and chorus), tune down 1/2 a step
      and play an E5 (022xxx) where that note appears, raising all other
      chords by one fret as well.
      
SYMBOLS:
....PM.....  Palm Mute
    x        Pick Scr*pe

VERSE:
e |----------------------------------|  x4
B |----------------------------------|
G |-3-3-3-3-----------------8-8-8-8--|
D |-3-3-3-3-3-3-3-3-6-6-6-6-8-8-8-8--|
A |-1-1-1-1-3-3-3-3-6-6-6-6-6-6-6-6--|
E |---------1-1-1-1-4-4-4-4----------|
    "You'd think we might have learned from the problems that occured..."

D-RIFF:
e |---------------------------------------------------|
B |---------------------------------------------------|
G |---7-7-7-x-x---7-7-7-x-x---7-7-7-x-x---7-7-7-x-x-7-|
D |---7-7-7-x-x---7-7-7-x-x---7-7-7-x-x---7-7-7-x-x-7-|
A |---5-5-5-x-x---5-5-5-x-x---5-5-5-x-x---5-5-5-x-x-5-|
E |---------------------------------------------------|

PRE-CHORUS:
    .....PM........................
e |-----------------------------------------------------------------| x2
B |-----------------------------------------------------------------|
G |-------------------------------------------------5-5-5-5-5-5-5-5-|
D |-5-5-5-5-5-5-5-5-5-7-7-7-7-7-7-7-1-1-1-1-1-1-1-1-5-5-5-5-5-5-5-5-|
A |-5-5-5-5-5-5-5-5-7-7-7-7-7-7-7-7-1-1-1-1-1-1-1-1-3-3-3-3-3-3-3-3-|
E |-3-3-3-3-3-3-3-3-5-5-5-5-5-5-5-5---------------------------------|
    "They say it's just for a little influence..."
  
D-RIFF

CHORUS:
e |----------------------------------|  x3
B |----------------------------------|
G |-----------------5-5-5-5----------|
D |-5-5-5-5-1-1-1-1-5-5-5-5-3-3-3-3--|
A |-5-5-5-5-1-1-1-1-3-3-3-3-3-3-3-3--|
E |-3-3-3-3-----------------1-1-1-1--|
    "We have to do something that just doesn't feel alright"

e |----------------------------------|
B |----------------------------------|
G |---------8-8-8-8-3-3-3-3-5-5-5-5--|
D |-5-5-5-5-8-8-8-8-3-3-3-3-5-5-5-5--|
A |-5-5-5-5-6-6-6-6-1-1-1-1-3-3-3-3--|
E |-3-3-3-3--------------------------|
   "It's not an ordinary fight"

D-RIFF
VERSE
D-RIFF
PRE-CHORUS
D-RIFF
CHORUS

D-RIFF
 
BRIDGE (play the whole thing twice):
    ...PM..........
e |----------------------------------|  x3 (PM on 1st and 3rd time)
B |----------------------------------|
G |---------3-3-3-3-5-5-5-5-8-8-7-7--|
D |-5-5-5-5-3-3-3-3-5-5-5-5-8-8-7-7--|
A |-5-5-5-5-1-1-1-1-3-3-3-3-6-6-5-5--|
E |-3-3-3-3--------------------------|

e |----------------------------------|
B |----------------------------------|
G |---------3-3-3-3---------7-7-7-7--|
D |-5-5-5-5-3-3-3-3-3-3-3-3-7-7-7-7--|
A |-5-5-5-5-1-1-1-1-3-3-3-3-5-5-5-5--|
E |-3-3-3-3---------1-1-1-1----------|

CHORUS
D-RIFF
CHORUS

END:
e |-----------------------------------------|
B |-----------------------------------------|
G |---7-7-7-x-x---7-7-7-x-x---7-7-7-x-x-----|
D |---7-7-7-x-x---7-7-7-x-x---7-7-7-x-x---5-|
A |---5-5-5-x-x---5-5-5-x-x---5-5-5-x-x---5-|
E |---------------------------------------3-|

============================================================================
            
Hard to play? Try these video lessons and learn fast. | Correct




comments powered by Disqus
↑ Back to top | Tablatures and chords are parodies/interpretations of the original songs. You may use it for private study, scholarship, research or language learning purposes only