» » »

I Against I, Maybe Tomorrow Bass tabs (ver.2)

Artists:  A B C D E F G H I J K L M N O P Q R S T U V W X Y Z # 

Maybe Tomorrow Bass tabs (ver.2)

I Against I Tabs
 Rating:
4/5 (4 votes)
Maybe Tomorrow lessons Tabs too difficult? Try these video lessons and learn fast
1
                
First of all, if you don't have I Against I's "HEADCLEANER" drop what your
doing and go out and buy it NOW. Also, while your dropping stuff, drop your
bass down to D - punk in D you ask? That's right.

Riff A: (twice)
A-------3333-2222--0-0-0------------33333333--
D--3333------------------3-00000000-----------

Riff B: (twice)
A--------------------77777777--55555555--
D--33333333-33333333---------------------

Riff C: (twice)
G-----------------------------------------
D--------------------33333333-3333-33-22--
A--33333333-55555555----------------------
D-----------------------------------------

Riff D: (once)
A--33333333-55555555-77777777-55555555--
D---------------------------------------

Riff E: (once)
G------------------------------------------------
D------------------------------------------------
A--33333333-55555555-88888888-8\7\6\5\4\3\2\1p0--
D------------------------------------------------

Riff B: (twice)
Riff C: (twice)
Riff D: (once)

Riff F: (once)
A--33333333-55555555----------------------
D--------------------33333333-3333-33-22--

Riff G: (twice)
A-------------3333-33-22---
D--0000-0-0----------------

Riff H: (once)
A-------------3333---3--3--
D--0000-0-0----------------

Riff I: (once)
A--55555555-5555-----------
D----------------0--33-22--

Riff G: (twice)
Riff H: (once)

Riff J: (once)
A--55555555-55555555--
D---------------------

Riff C: (twice)
Riff D: (once)

Riff K: (once)
A--33333333-55555555------3333-2222-0000--
D--------------------3333-----------------

Riff L: (3 times)
A-----------33333333------3333-2222-0000--
D--00000000----------3333-----------------

Riff M: (once)
A-----------3-------------
D--0-----------------3-3--
            
Submit corrections

comments powered by Disqus
↑ Back to top | I Against I Bass for Maybe Tomorrow. Lyrics for acoustic guitar and electric guitar. 1 Tablatures and chords are parodies/interpretations of the original songs. You may use it for private study, scholarship, research or language learning purposes only