» » »

They Don't Care Tabs (ver.1)

Artists:  A B C D E F G H I J K L M N O P Q R S T U V W X Y Z # 

They Don't Care Tabs (ver.1)

Hypnogaja
Rating:
1/5 (1 vote)

Hard to play? Try these video lessons and learn fast.
                
just like my misery tab this one is done by ear,,,,and memory.

ive done this by memory, made it in guitar pro a long while ago so its probably 
wrong on some points but it'll give ya a general idea.

!!dont blame me if it doesnt sound right when played!!

INTRO(bass only)

VERSE
E|----------------|----------------|----------------|----------------|
A|----------------|----------------|----------------|----------------|
D|----------------|----------------|----------------|----------------|
G|----0-----0344--|----0----04-2-2-|----0------0344-|----0----04-2-2-|
B|222---22-2------|222---22--------|222---22-2------|222---22--------|
e|----------------|----------------|----------------|----------------|x2

PRE-CHORUS
E|----------------|----------------|----------------|----------------|
A|----------------|----------------|----------------|----------------|
D|----------------|----------------|----------------|----------------|
G|222-5-22--------|222-5-22--------|222-5-22--------|222-5-22----12\-|
B|000-3-00--------|000-3-00--------|000-3-00--------|000-3-00----12\-|
e|----------------|----------------|----------------|----------------|x2

CHORUS
E|----------------|----------------|----------------|----------------|
A|----------------|----------------|----------------|----------------|
D|----------------|----------------|----------------|----------------|
G|222-5-22-22-----|222-5-22-25-----|222-5-22-22-----|7777777755555555|
B|000-3-00-00-5-5-|000-3-00-03-5-5-|000-3-00-00-5-5-|5555555533333333|
e|------------3-3-|------------3-3-|------------3-3-|----------------|x2

VERSE
PRE-CHORUS
CHORUS x2

Bridge
E|----------------|----------------|----------------|----------------|
A|----------------|----------------|----------------|----------------|
D|----------------|----------------|----------------|----------------|
G|----------------|4-4444446-666664|----------------|4-4444446-666666|
B|5-5555557-777777|2-2222224-444442|5-5555557-777777|2-2222224-444444|
e|3-3333335-555555|----------------|3-3333335-555555|----------------|Muted 2x

bridge un muted 2x

bass intro turns into outro.
            
Hard to play? Try these video lessons and learn fast. | Correct




comments powered by Disqus
↑ Back to top | Tablatures and chords are parodies/interpretations of the original songs. You may use it for private study, scholarship, research or language learning purposes only