» » »

Hypnogaja, Misery Tabs (ver.1)

Artists:  A B C D E F G H I J K L M N O P Q R S T U V W X Y Z # 

Misery Tabs (ver.1)

Hypnogaja Tabs
 Rating:
4/5 (5 votes)
Misery lessons Tabs too difficult? Try these video lessons and learn fast
                Hypnogaja - Misery


INTRO
guitar 1 (played on a piano but guitar is possible too,,DUH)
e|----7-----------|----7-------9---|----7-----------|----------------|x4
B|----------------|----------------|----------------|----------------|
G|----------------|----------------|----------------|----------------|
D|----------------|----------------|----------------|----------------|
A|----------------|----------------|----------------|----------------|
E|----------------|----------------|----------------|----------------|
____________________________________________________________________________
BREAK-DOWN
guitar 1
e|7---9---10--9---|7---9---10--9---|7---9---10--9---|7---9---10--9---|x2
A|----------------|----------------|----------------|----------------|
D|----------------|----------------|----------------|----------------|
G|----------------|----------------|----------------|----------------|
B|----------------|----------------|----------------|----------------|
E|----------------|----------------|----------------|----------------|

guitar 2 (this is an actual guitar lol)
e|----------------|----------------|----------------|----------------|x2
B|----------------|----------------|----------------|----------------|
G|----------------|----------------|----------------|----------------|
D|----------------|----------------|----------------|----------------|
A|22-22-22-22-22--|22-22-22-22-3---|22-22-22-22-22--|22-22-22-22-2\10|<-1\0
E|00-00-00-00-00--|00-00-00-00-1---|00-00-00-00-00--|00-00-00-00-----|intro
___________________________________________________________________________
VERSES
guitar 1
e|7---9---10--9---|12--10--9---10--|7---9---10--9---|12--10--9---10--|x4
B|----------------|----------------|----------------|----------------|
G|----------------|----------------|----------------|----------------|
D|----------------|----------------|----------------|----------------|
A|----------------|----------------|----------------|----------------|
E|----------------|----------------|----------------|----------------|

guitar 2
e|----------------|----------------|----------------|----------------|
B|----------------|----------------|----------------|----------------|
G|----------------|----------------|----------------|----------------|
D|----------------|----------------|----------------|----------------|
A|55--------------|----------------|22----22--------|22----22--------|
E|33--------------|----------------|00----00--------|00----00--------|

e|----------------|----------------|----------------|----------------|
B|----------------|----------------|----------------|----------------|
G|----------------|----------------|----------------|----------------|
D|----------------|----------------|----------------|----------------|
A|44----44--------|44----44--------|22----22--------|22----22--------|
E|22----22--------|22----22--------|00----00--------|00----00--------|

e|----------------|----------------|----------------|----------------|
B|----------------|----------------|----------------|----------------|
G|----------------|----------------|----------------|----------------|
D|----------------|----------------|----------------|----------------|
A|44----44--4--5--|44----44--4--5--|22----22--2--3--|22----22--2--3--|
E|22----22--2--3--|22----22--2--3--|00----00--0--1--|00----00--0--1--|

e|----------------|----------------|----------------|----------------|
B|----------------|----------------|----------------|----------------|
G|----------------|----------------|----------------|----------------|
D|----------------|----------------|----------------|----------------|
A|44----44--4--5--|44----44--4--5--|22----22--2--3--|22----22--2--3--|
E|22----22--2--3--|22----22--2--3--|00----00--0--1--|00----00--0--1--|
____________________________________________________________________________
PRE-CHORUS
guitar 2
e|----------------|----------------|----------------|----------------|
B|----------------|----------------|----------------|----------------|
G|----------------|----------------|----------------|----------------|
D|----------------|----------------|----------------|----------------|
A|4--2-25--2--26-5|22-22222-25-225-|4--2-25--2--26-5|2222-----2222---|
E|2--0-03--0--04-3|00-00000-03-003-|2--0-03--0--04-3|0000-----0000---|
___________________________________________________________________________
CHORUS
guitar 1
e|----7-----------|----7-------9---|----7-----------|----------------|x2
B|----------------|----------------|----------------|----------------|
G|----------------|----------------|----------------|----------------|
D|----------------|----------------|----------------|----------------|
A|----------------|----------------|----------------|----------------|
E|----------------|----------------|----------------|----------------|

guitar 2
e|----------------|----------------|----------------|----------------|x2
B|----------------|----------------|----------------|----------------|
G|----------------|----------------|----------------|----------------|
D|----------------|----------------|----------------|----------------|
A|5--55-55-55-556-|2--22-22-22-223-|5--55-55-55-556-|2--22-22-22-223-|
E|3--33-33-33-334-|0--00-00-00-001-|3--33-33-33-334-|0--00-00-00-001-|
____________________________________________________________________________
VERSE
PRE-CHORUS
CHORUS
____________________________________________________________________________
BRIDGE
guitar 2
e|----------------|----------------|----------------|----------------|
B|----------------|----------------|----------------|----------------|
G|----------------|----------------|----------------|----------------|
D|----------------|----------------|----------------|----------------|
A|55--5-5-------5-|3--2--4--2--5-6-|55--5-5-------5-|333---333-------|
E|33--3-3-------3-|1--0--2--0--3-4-|33--3-3-------3-|111---111-------|

e|----------------|----------------|----------------|----------------|
B|----------------|----------------|----------------|----------------|
G|----------------|----------------|----------------|----------------|
D|----------------|----------------|----------------|----------------|
A|55--5-5-------5-|3--2--4--2--5-6-|55--5-5-------5-|335--2-2-4--3-3-|
E|33--3-3-------3-|1--0--2--0--3-4-|33--3-3-------3-|113--0-0-2--1-1-|
____________________________________________________________________________
CHORUS
BREAKDOWN till fade-out.


as far as i know this is the first tab of this song on the net:) woohoo lol.

!!hope it helps you guys out there!!
            
Submit corrections

comments powered by Disqus
↑ Back to top | Hypnogaja Tabs for Misery. Lyrics for acoustic guitar and electric guitar. Tablatures and chords are parodies/interpretations of the original songs. You may use it for private study, scholarship, research or language learning purposes only