» » »

Hypnogaja, Here Comes The Rain Again Tabs (ver.1)

Artists:  A B C D E F G H I J K L M N O P Q R S T U V W X Y Z # 

Here Comes The Rain Again Tabs (ver.1)

Hypnogaja Tabs
Rating:
0/5 (0 votes)
Here Comes The Rain Again lessons Tabs too difficult? Try these video lessons and learn fast
                (Intro)
E-----------3---------------------------------------|
B-------4------4-----3h4p3--------------------------|
G---5---5--------5-----------5----------------------|
D---5---5----------5--------------------------------|
A---3-----------------------------------------------|
E---------------------------------------------------|

E---------------------------------------------------|
B---------------------------------------------------|
G-----------------------5---------------------------|
D--------8-8-8-x-6------6---------------------------|
A----6---6-6-6-x-6------6---------------------------|
E----4---4-4-4-x----4-------------------------------|

E---------------------------------------------------|
B-----4-4-3------3----------------------------------|
G-----3-3-3------3----------------------------------|
D--3--3-3-3--3---3----------------------------------|
A--1---------1--------------------------------------|
E---------------------------------------------------|

E------3--------3-----------------------------------|
B------4--3--------3--------------------------------|
G---5-----5-----------5-----------------------------|
D---5-----------------------------------------------|
A---3-----------------------------------------------|
E---------------------------------------------------|

If u have question, talk it to me ;)
            

comments powered by Disqus
↑ Back to top | Hypnogaja Tabs for Here Comes The Rain Again. Lyrics for acoustic guitar and electric guitar. Tablatures and chords are parodies/interpretations of the original songs. You may use it for private study, scholarship, research or language learning purposes only