» » »

Hyper Static Union, Praying For Sunny Days Tabs (ver.1)

Artists:  A B C D E F G H I J K L M N O P Q R S T U V W X Y Z # 

Praying For Sunny Days Tabs (ver.1)

Hyper Static Union Tabs
 Rating:
4/5 (6 votes)
Praying For Sunny Days lessons Tabs too difficult? Try these video lessons and learn fast
1
                 Great song, pretty sur this tab is right. and i know i got that solo down perfect.

Hyperstatic Union- Praying for Sunny Days


Intro/Verse- Guitar 1
E----------------------------------------------------------------------------|
B----------------------------------------------------------------------------|
G-6-66-6-6-66-6-6-66-6-6-66-6-6-66-6-6-66-6-6-66-6-6-66-6-6-66-6-6-66-6-6-66-|
D-7-77-7-7-77-7-7-77-7-7-77-7-7-77-7-7-77-7-7-77-7-7-77-7-7-77-7-7-77-7-7-77-|
A-7-77-7-7-77-7-7-77-7-7-77-7-7-77-7-7-77-7-7-77-7-7-77-7-7-77-7-7-77-7-7-77-|
E-5-55-5-5-55-5-5-55-5-5-55-5-5-55-5-5-55-5-5-55-5-5-55-5-5-55-5-5-55-5-5-55-|

Intro/Verse- Guitar 2
E--------------------------------------------------------------------------|
B--------------------------------------------------------------------------|
G-------99-10-7-77-9-5-55-7-4-44-5-2---------99-10-7-77-9-5-55-7-4-44-5-2--|
D--------------------------------------------------------------------------|
A--------------------------------------------------------------------------|
E--------------------------------------------------------------------------|
  He does this in some parts of the verse. Listen to it if confused.


Pre-chorus- Guitar 1 and 2
E------------------------------------------------------------|
B------------------------------------------------------------|
G-7-77-7-7-77-7-7-77-7-7-77-7--------------------------------|
D-7-77-7-7-77-7-7-77-7-7-77-7--------------------------------|
A-5-55-5-5-55-5-5-55-5-5-55-5--------------------------------|
E-5-55-5-5-55-5-5-55-5-5-55-5--------------------------------|
 He says "and i am just a man, only a man..."


Chorus- x2
E----------------------------------------------------------------------------|
B----------------------------------------------------------------------------|
G---------------------7-77-7-7-7---------------------------------------------|
D-9-9-9-9--4-44-4-44--7-77-7-7-7--9-9-9-9-9----9-9-999--44-4-444-22222222222-|
A-9-9-9-9--4-44-4-44--5-55-5-5-5--9-9-9-9-9----9-9-999--44-4-444-22222222222-|
E-7-7-7-7--2-22-2-22--------------7-7-7-7-7----7-7-777--22-2-222-00000000000-|


same verse

same pre-chorus

same chorus

bridge- ive believe they play this, and the guy sings with the tune of guitar
E----------------------------------------------------------------------------|
B----------------------------------------------------------------------------|
G---99-10-7-77-9-5-55-7-4-44-5-2------99-10-7-77-9-5-55-7-4-44-5-2-----------|
D----------------------------------------------------------------------------|
A----------------------------------------------------------------------------|
E----------------------------------------------------------------------------|

Solo-alot of double picking(whole solo wit wah pedal, or whatever its called)
E----------------------------------------------------------------------------|
B----------------------------------------------------------------------------|
G-99999/10-777777777/999-555555555/777-444444444/555-22222222----------------|
D----------------------------------------------------------------------------|
A----------------------------------------------------------------------------|
E----------------------------------------------------------------------------|

---------7-7-7-8h--------------------|
-5--------5-5------------------------|
--7/5-4-5----------------------------|
-------------------------------------|
-------------------------------------|
-------------------------------------|

After the solo it repeats that same chorus a couple times.

Outro
E---------------------------------------------------|
B---------------------------------------------------|
G-7-77-7-7-77-7-7-77-7-7-77-7-7-77-7-7-77-7-7-77-7~-|
D-7-77-7-7-77-7-7-77-7-7-77-7-7-77-7-7-77-7-7-77-7~-|
A-5-55-5-5-55-5-5-55-5-5-55-5-5-55-5-5-55-5-5-55-5~-|
E-5-55-5-5-55-5-5-55-5-5-55-5-5-55-5-5-55-5-5-55-5~-|
            
Submit corrections

comments powered by Disqus
↑ Back to top | Hyper Static Union Tabs for Praying For Sunny Days. Lyrics for acoustic guitar and electric guitar. 1 Tablatures and chords are parodies/interpretations of the original songs. You may use it for private study, scholarship, research or language learning purposes only