» » »

Hyde, Prayer Bass tabs (ver.1)

Artists:  A B C D E F G H I J K L M N O P Q R S T U V W X Y Z # 

Prayer Bass tabs (ver.1)

Hyde Tabs
 Rating:
4/5 (4 votes)
Prayer lessons Tabs too difficult? Try these video lessons and learn fast
1
                 PRAYER BY HYDE
 DROP D 
 4/4 TIME
                                     EVERY 4 MEASURES
 INTRO VERSE, AFTER GUITAR               ~~~~^~~~~   
 G[------------------------------------]---------]
 D[------------------------------------]---------]   
 A[------------------------------------]---------]
 D[-00000000-33333333-555555555555858--]-0-00000-]
================================================
 CHORUS
 G[--------------------------]
 D[--------------------------]
 A[-2-2221-111---------------]
 D[-----------6-666/88888888-]X2
 
 G[------------------------------]
 D[------------------------------]
 A[-2/15\2221-111----------------] ~~~~~EVERY 4 MEASURES
 D[--------------6-666/88888888--]
 ===============================================
 RIGHT BEFORE GUITAR SOLO
 G[----------------------------]
 D[----------------------------]
 A[----------------------------]
 D[--0-00000---0-00000*---12\0-]
================================================
 DURING SOLO
 G[------------------------------------]
 D[------------------------------------]  
 A[------------------------------------]
 D[-00000000-33333333-555555555555858--]
===============================================
 AFTER SOLO
 G[--------------------------]
 D[--------------------------]
 A[-2-2221-111---------------]
 D[-----------6-666/88888888-]X2
 
 G[------------------------------]
 D[------------------------------]
 A[-2/15\2221-111----------------] ~~~~~EVERY 4 MEASURES
 D[--------------6-666/88888888--]
==============================================
OUTRO                                     ONLY AS LAST NOTE
 G[------------------------------------]-----]
 D[------------------------------------]-----]
 A[------------------------------------]-----]
 D[-00000000-33333333-555555555555858--]-0---]
            
Submit corrections

comments powered by Disqus
↑ Back to top | Hyde Bass for Prayer. Lyrics for acoustic guitar and electric guitar. 1 Tablatures and chords are parodies/interpretations of the original songs. You may use it for private study, scholarship, research or language learning purposes only