» » »

Cape Of Storms Tabs (ver.1)

Artists:  A B C D E F G H I J K L M N O P Q R S T U V W X Y Z # 

Cape Of Storms Tabs (ver.1)

Hyde
Rating:
5/5 (1 vote)

Tabs too difficult? Try these video lessons and learn fast.
                tada! for all you little budding guitarists out there, here is the guitar tabs for the
to hyde's cape of storms!! it took me all morning to do, so if you find anything wrong
it, please let me know! the sine at the end goes back to the line "you know completely" 
the chorus, that's what the dashed line down the tab is, so start again after that.
at the end where the / is, there's some sort of bridge that i haven't figured out yet. 
you happen to figure that out, please please please tell me! my e-mail's 
arigatou!

The Cape of Storms by Hyde

e|-------------------------------------------------------------------------|
B|-----3----2--3-----------3----2---------------------3----2-3-------------|
G|---------------------------------0------2--------------------------------|
D|--4------------4-------4-------------4-------4------------------4--------|
A|-------------------------------------------------------------------------|
E|-------------------------------------------------------------------------|
   So where do I sail?   A ship losing control  My cries swallowed up,

e|---------2-2--0----------------------------------------------------------|
B|---2--3-----------2-----------3---2----3--------------3--2---------------|
G|-----------------------------------------------------------0-------2-----|
D|--------------------------4----------------4------4------------4---------|
A|-------------------------------------------------------------------------|
E|-------------------------------------------------------------------------|
   lost in the raging sea  So where has love gone?  Will I ever reach it?

                                                   S
e|---------------------------2-2----0--------------|-----2-2---------------|
B|------3-2--3---------2-3-------------2-------0---|-----------3--2-3------|
G|-------------------------------------------2-----|-----------------------|
D|--4-----------4----------------------------------|-----------------------|
A|-------------------------------------------------|-----------------------|
E|-------------------------------------------------|-----------------------|
   The Cape of Storms echoes the pain I feel inside  You'll never notice
							You know completely

e|----2-2-0--5--3-2---------5--5--5------3----2----------------------------|
B|----------------------3--------------------------2----0--2--3------------|
G|-------------------------------------------------------------------------|
D|-------------------------------------------------------------------------|
A|-------------------------------------------------------------------------|
E|-------------------------------------------------------------------------|
   The colour of sin  Just as the storm clouds closes in  It's dark
   The taste of sin   Melting sweet in your mouth         Like chocolate

e|---2-2---------------3-0---5-3--2------5--5--5---3--2--------------------|
B|---------3--2---3-------------------3-------------------2----------------|
G|-------------------------------------------------------------------------|
D|-------------------------------------------------------------------------|
A|-------------------------------------------------------------------------|
E|-------------------------------------------------------------------------|
   Here in the shadows  I am pursued  Until the ends of the earth
   A moment of pleasure You are fulfilled  But every dream has its time

e|----------------2----0---0--------2---------2--2---0--0------------------|
B|--0-2--3----3----------------0-----------3----------------0--2-----------|
G|-------------------------------------------------------------------------|
D|-------------------------------------------------------------------------|
A|-------------------------------------------------------------------------|
E|-------------------------------------------------------------------------|
   Embraced  The ghost ship wanders far  For there is no guiding star
   To die

e|----2-2---2--0------------2--0------0-2----------------------------------|
B|-----------------0---3-----------3-------------3----2--3-----------------|
G|-------------------------------------------------------------------------|
D|--------------------------------------------4-------------4--------------|
A|-------------------------------------------------------------------------|
E|-------------------------------------------------------------------------|
   And this treasure has no meaning anymore  So where do I sail?

e|--------------------------------------------------------2-2--0-----------|
B|---3----2---------------------3----2-3------------2--3-----------2-------|
G|-----------0------2------------------------------------------------------|
D|-4-------------4----------4---------------4------------------------------|
A|-------------------------------------------------------------------------|
E|-------------------------------------------------------------------------|
   A ship losing control  My cries swallowed up, lost in the raging sea


e|-------------------------------------------------------------------------|
B|------3---2---3----------------3--2------------------3-2--3--------------|
G|-------------------------------------0------2----------------------------|
D|--4----------------4--------4-----------4--------4------------4----------|
A|-------------------------------------------------------------------------|
E|-------------------------------------------------------------------------|
   So where has love gone?  Will I ever reach it? The Cape of Storms

				    D.S. al Fine
e|---------2-2---0---------------------------------------------------------|
B|---2-3------------2-------0----------------------------------------------|
G|-----------------------2-------------------------------------------------|
D|-------------------------------------------------------------------------|
A|-------------------------------------------------------------------------|
E|-------------------------------------------------------------------------|
   echoes the pain I feel inside  /
            
Tabs too difficult? Try these video lessons and learn fast.




comments powered by Disqus
↑ Back to top | Tablatures and chords are parodies/interpretations of the original songs. You may use it for private study, scholarship, research or language learning purposes only