>
 >
Woo-oo-oo-oo-o Live

Woo-oo-oo-oo-o Live Guitar Tabs

Hurriganes - Woo-oo-oo-oo-o Live chords, tabs, tablatures, lyrics

Guitar lessons | Add/correct | Request | Top 50 tabs Artists:  A B C D E F G H I J K L M N O P Q R S T U V W X Y Z 0-9

Woo-oo-oo-oo-o Live Guitar Tabs – Hurriganes

CD, Sheet music, Poster

Do you like Woo-oo-oo-oo-o Live? Share with your friends now
Tabs
-------------------------------------------------------------------------------
Hurriganes- Woo-oo-oo-oo-o
Live in Stockholm 1977
-------------------------------------------------------------------------------

Intro
e|---------------------------------------------------------------------------|
B|--7-7-5--------------------------7-7-5-------------------------------------|
G|--------7---7--7---------7-7-7-7-------7---7--7---------7-7-7-7------------|
D|------------7--7---------7-7-7-7-----------7--7---------7-7-7-7------------|
A|----------5------------4-5-5-5-5---------5------------4-5-5-5-5------------|
E|-----------------5-5-7--------------------------5-5-7----------------------|

e|---------------------------------------------------------------------------|
B|--7-7-5--------------------------------------------------------------------|
G|--------7---7--7---------7-7-7-7--------7-7-7-7--------7-7-7-7-------------|
D|------------7--7---------7-7-7-7--------7-7-7-7--------7-7-7-7-------------|
A|----------5------------4-5-5-5-5------4-5-5-5-5------4-5-5-5-5------4------|
E|-----------------5-5-7------------5-7-----------5--7------------5-7--------|

Verse
e|---------------------------------------------------------------------------|
B|---------------------------------------------------------------------------|
G|--7-7-7-7-------7-7-7-7-------7-7-7-7-------7-7-7-7------------------------|
D|--7-7-7-7-------7-7-7-7-------7-7-7-7-------7-7-7-7------------------------|
A|--5-5-5-5-----4-5-5-5-5-----4-5-5-5-5-----4-5-5-5-5-------4----------------|
E|----------5-7-----------5-7-----------5-7-------------5-7------------------|

e|---------------------------------------------------------------------------|
B|---------------------------------------------------------------------------|
G|--7-7-7-7-------7-7-7-7-------7-7-7-7-------7-7-7-7--7-7-7-----------------|
D|--7-7-7-7-------7-7-7-7-------7-7-7-7-------7-7-7-7--7-7-7-----------------|
A|--5-5-5-5-----4-5-5-5-5-----4-5-5-5-5-----4-5-5-5-5--5-5-5-----------------|
E|----------5-7-----------5-7-----------5-7----------------------------------|

e|---------------------------------------------------------------------------|
B|---------------------------------------------------------------------------|
G|---------------------------------------------------------------------------|
D|---------------------------------------------------------------------------|
A|---5--5-5-5-5-5-5-5-5-5-5-5-5-5-5-5-5-5-5-5-5-5----------------------------|
E|---3--3-3-3-3-3-3-3-3-3-3-3-3-3-3-3-3-3-3-3-3-3----------------------------|

e|---------------------------------------------------------------------------|
B|---------------------------------------------------------------------------|
G|--7-7-7-7-------7-7-7-7-------7-7-7-7-------7-7-7-7------------------------|
D|--7-7-7-7-------7-7-7-7-------7-7-7-7-------7-7-7-7------------------------|
A|--5-5-5-5-----4-5-5-5-5-----4-5-5-5-5-----4-5-5-5-5--4---------------------|
E|----------5-7-----------5-7-----------5-7--------------7-5-----------------|


e|---------------------------------------------------------------------------|
B|---------------------------------------------------------------------------|
G|---------------------------------------------------------------------------|
D|---------------------------------------------------------------------------|
A|--7-7-7-7-7-7-7-7-7-7-7-7-7-7-7-7--5-5-5-5-5-5-5-5-5-5-5-5-5-5-5-5---------|
E|--5-5-5-5-5-5-5-5-5-5-5-5-5-5-5-5--3-3-3-3-3-3-3-3-3-3-3-3-3-3-3-3---------|

e|---------------------------------------------------------------------------|
B|---------------------------------------------------------------------------|
G|--7-7-7-7-------7-7-7-7-------7-7-7-7-------7-7-7-7--7-7-7-----------------|
D|--7-7-7-7-------7-7-7-7-------7-7-7-7-------7-7-7-7--7-7-7-----------------|
A|--5-5-5-5-----4-5-5-5-5-----4-5-5-5-5-----4-5-5-5-5--5-5-5-----------------|
E|----------5-7-----------5-7-----------5-7----------------------------------|


e|---------------------------------------------------------------------------|
B|---------------------------------------------------------------------------|
G|---------------------------------------------------------------------------|
D|------------------------------------7-7-7-7-7-7-7-7-7-7-7-7-7-7-7----------|
A|--5--5-5-5-5-5-5-5-5-5-5-5-5-5-5-5--5-5-5-5-5-5-5-5-5-5-5-5-5-5-5----------|
E|--3--3-3-3-3-3-3-3-3-3-3-3-3-3-3-3-----------------------------------------|

e|---------------------------------------------------------------------------|
B|---------------------------------------------------------------------------|
G|---------------------------------------------------------------------------|
D|---------------------------------------------------------------------------|
A|--5-5-5-5-5-5-5-5-5-5-5-5-5-5-5---2-2-2-2-2-2-2-2--2-----------------------|
E|--3-3-3-3-3-3-3-3-3-3-3-3-3-3-3---0-0-0-0-0-0-0-0--0-----------------------|

e|---------------------------------------------------------------------------|
B|---------------------------------------------------------------------------|
G|--7-7-7-7-------7-7-7-7-------7-7-7-7-------7-7-7-7------------7-----------|
D|--7-7-7-7-------7-7-7-7-------7-7-7-7-------7-7-7-7--------7-9-------------|
A|--5-5-5-5-----4-5-5-5-5-----4-5-5-5-5-----4-5-5-5-5------------------------|
E|----------5-7-----------5-7-----------5-7----------------------------------|

Solo
e|---------------------------------------------------------------------------|
B|---10---10----10--------10-10-10-10-----10---10--10---10-------10-10-10-10-|
G|---9b11-9b11-9b11r9-7---7--7---9--7------7-9b11-9b11-9b11r9-7---7--7--9--7-|
D|----------------------9--------------7-9----------------------9------------|
A|---------------------------------------------------------------------------|
E|---------------------------------------------------------------------------|

e|---------------------------------------------------------------------------|
B|----------------10---10--10-10-10-10-10----------10b12-10-7-10-------------|
G|-------7-7-9b11----9b11r9-7--9-9b10r9-7-----7-7-7--------------9b10-7-9-7--|
D|---7-9---------------------------------7-9---------------------------------|
A|---------------------------------------------------------------------------|
E|---------------------------------------------------------------------------|

e|---------------------------------------------------------------------------|
B|-----------15-15-15----15-15-15-15-15-15-----------------15-15----15-------|
G|-----------12-12-14b16-14-12-14-12-12-14p12----12--------12-14b16-14b16----|
D|--12-14-12----------------------------------14-----12-14-------------------|
A|---------------------------------------------------------------------------|
E|---------------------------------------------------------------------------|

e|-----------------------------------------------10----10----10-------12-----|
B|---15----15-------15----15-15-15-------15--/10----10----10----10/12----12--|
G|---14b16-14b16r14-12----12-12-14p12----12----------------------------------|
D|---------------------14-------------14-------------------------------------|
A|---------------------------------------------------------------------------|
E|---------------------------------------------------------------------------|

e|--------13-------14----14-14-14-14-14-13-12-10-10-12-12-12-10--------------|
B|--12/13----13/15----15-15-15-15-15-15-14-12-10-10-12-12-12-10--------------|
G|---------------------------------------------------------------------------|
D|---------------------------------------------------------------------------|
A|---------------------------------------------------------------------------|
E|---------------------------------------------------------------------------|

e|---------------------------------------------------------------------------|
B|---/14-14-14-14-13-12-----------------12-12-12-12-12-11--------------------|
G|---/14-14-14-14-13-12-14-14-16-/18-18-12-12-12-12-12-11-14-12-12-14-16-16--|
D|----------------------14-14-17-/19-19-------------------14-12-12-14-17-17--|
A|---------------------------------------------------------------------------|
E|---------------------------------------------------------------------------|

e|------10----12----13----14-14-14-14-13-12-10-10-12-12-13-14-13-12-10-------|
B|--/10---/12---/14---/15-15-15-15-15-14-12-10-10-12-12-14-15-14-12-10-------|
G|---------------------------------------------------------------------------|
D|---------------------------------------------------------------------------|
A|---------------------------------------------------------------------------|
E|---------------------------------------------------------------------------|

Verse
e|---------------------------------------------------------------------------|
B|---------------------------------------------------------------------------|
G|--7-7-7-7-------7-7-7-7-------7-7-7-7-------7-7-7-7------------------------|
D|--7-7-7-7-------7-7-7-7-------7-7-7-7-------7-7-7-7------------------------|
A|--5-5-5-5-----4-5-5-5-5-----4-5-5-5-5-----4-5-5-5-5-------4----------------|
E|----------5-7-----------5-7-----------5-7-------------5-7------------------|

e|---------------------------------------------------------------------------|
B|---------------------------------------------------------------------------|
G|--7-7-7-7-------7-7-7-7-------7-7-7-7-------7-7-7-7--7-7-7-----------------|
D|--7-7-7-7-------7-7-7-7-------7-7-7-7-------7-7-7-7--7-7-7-----------------|
A|--5-5-5-5-----4-5-5-5-5-----4-5-5-5-5-----4-5-5-5-5--5-5-5-----------------|
E|----------5-7-----------5-7-----------5-7----------------------------------|

e|---------------------------------------------------------------------------|
B|---------------------------------------------------------------------------|
G|---------------------------------------------------------------------------|
D|---------------------------------------------------------------------------|
A|---5--5-5-5-5-5-5-5-5-5-5-5-5-5-5-5-5-5-5-5-5-5----------------------------|
E|---3--3-3-3-3-3-3-3-3-3-3-3-3-3-3-3-3-3-3-3-3-3----------------------------|

e|---------------------------------------------------------------------------|
B|---------------------------------------------------------------------------|
G|--7-7-7-7-------7-7-7-7-------7-7-7-7-------7-7-7-7------------------------|
D|--7-7-7-7-------7-7-7-7-------7-7-7-7-------7-7-7-7------------------------|
A|--5-5-5-5-----4-5-5-5-5-----4-5-5-5-5-----4-5-5-5-5--4---------------------|
E|----------5-7-----------5-7-----------5-7--------------7-5-----------------|


e|---------------------------------------------------------------------------|
B|---------------------------------------------------------------------------|
G|---------------------------------------------------------------------------|
D|---------------------------------------------------------------------------|
A|--7-7-7-7-7-7-7-7-7-7-7-7-7-7-7-7--5-5-5-5-5-5-5-5-5-5-5-5-5-5-5-5---------|
E|--5-5-5-5-5-5-5-5-5-5-5-5-5-5-5-5--3-3-3-3-3-3-3-3-3-3-3-3-3-3-3-3---------|

e|---------------------------------------------------------------------------|
B|---------------------------------------------------------------------------|
G|--7-7-7-7-------7-7-7-7-------7-7-7-7-------7-7-7-7---------------7--7-----|
D|--7-7-7-7-------7-7-7-7-------7-7-7-7-------7-7-7-7---------------7--7-----|
A|--5-5-5-5-----4-5-5-5-5-----4-5-5-5-5-----4-5-5-5-5-------------4-5--5-----|
E|----------5-7-----------5-7-----------5-7-------------------5-7------------|





Comments


Popular Hurriganes tabs & chords
I Will Stay Bass Tabs
My Only One 1 Bass Tabs
I Will Stay 1 Chords
Bop-she-bop Tabs
Brand New Sucker Tabs
I Will Stay 3 Tabs
Looking For The Tsugu Tabs
Ridin Ridin Tabs
Trippers Story Tabs
Keep On Movin Ukulele


Song lyrics



↑ Back to top | Tablatures and chords are parodies/interpretations of the original songs. You may use it for private study, scholarship, research or language learning purposes only
© 2014 AZChords.com Contact us | Privacy policy | DMCA | Add/correct tabs | Request tabs | Top 50 tabs