» » »

Hurriganes, Trippers Story Tabs (ver.1)

Artists:  A B C D E F G H I J K L M N O P Q R S T U V W X Y Z # 

Trippers Story Tabs (ver.1)

Hurriganes Tabs
Rating:
0/5 (0 votes)
Trippers Story lessons Tabs too difficult? Try these video lessons and learn fast
                -------------------------------------------------------------------------------
Hurriganes-Tripper's Story
Hot Wheels (1976)
-------------------------------------------------------------------------------

Intro

e|---------------------------------------------------------------------------|
B|---------------------------------------------------------------------------|
G|--------9-7-9-------------------------9-7-9--------------------------------|
D|-----9--9-7-9--9-11-9-12-9-11-9----9--9-7-9--9-11-9-12-9-11-9--------------|2x
A|---------------7--7-7--7-7--7-7--------------7--7-7--7-7--7-7--------------|
E|--/7----------------------------/7-----------------------------------------|

Verse

e|-------------------------------------------------|
B|-------------------------------------------------|
G|-------------------------------------------------|
D|----------------------9-9-11-9-12-9-11-9---------| 4x
A|--9-9-11-9-12-9-11-9--7-7--7-7--7-7--7-7---------|
E|--7-7--7-7--7-7--7-7-----------------------------|

Chorus

e|---------------------------------------------------------------------------|
B|---------------------------------------------------------------------------|
G|---------------------------------------------------------------------------|
D|---------------------------------------------------------------------------|
A|--7--7-7-7-7-7-7-7-7-7-7-7-7--9--9-9-9-9-9-9-9-9-9-9-9-9-------------------|
E|--5--5-5-5-5-5-5-5-5-5-5-5-5--7--7-7-7-7-7-7-7-7-7-7-7-7-------------------|

e|---------------------------------------------------------------------------|
B|---------------------------------------------------------------------------|
G|---------------------------------------------------------------------------|
D|---------------------------------------------------------------------------|
A|---7--7-7-7-7-7-7-7-7-7-7-7-7---4-4-4-4-4-4-4-4-4-4-4-4-4-4-4-4------------|
E|---5--5-5-5-5-5-5-5-5-5-5-5-5---2-2-2-2-2-2-2-2-2-2-2-2-2-2-2-2------------|

Verse

e|-------------------------------------------------|
B|-------------------------------------------------|
G|-------------------------------------------------|
D|----------------------9-9-11-9-12-9-11-9---------| 4x
A|--9-9-11-9-12-9-11-9--7-7--7-7--7-7--7-7---------|
E|--7-7--7-7--7-7--7-7-----------------------------|

Chorus

e|---------------------------------------------------------------------------|
B|---------------------------------------------------------------------------|
G|---------------------------------------------------------------------------|
D|---------------------------------------------------------------------------|
A|--7--7-7-7-7-7-7-7-7-7-7-7-7--9--9-9-9-9-9-9-9-9-9-9-9-9-------------------|
E|--5--5-5-5-5-5-5-5-5-5-5-5-5--7--7-7-7-7-7-7-7-7-7-7-7-7-------------------|

e|---------------------------------------------------------------------------|
B|---------------------------------------------------------------------------|
G|---------------------------------------------------------------------------|
D|---------------------------------------------------------------------------|
A|---7--7-7-7-7-7-7-7-7-7-7-7-7---4-4-4-4-4-4-4-4-4-4-4-4-4-4-4-4------------|
E|---5--5-5-5-5-5-5-5-5-5-5-5-5---2-2-2-2-2-2-2-2-2-2-2-2-2-2-2-2------------|

Solo

e|-------------------------------------------------7-------7-------7---------|
B|-------------------------------------------10b12---10b12---10b12-----------|
G|------7\---9b11r9-7-9----7--7---------7\-----------------------------------|
D|---9--7\--------------9--7--7--9-7-9--7\-----------------------------------|
A|---------------------------------------------------------------------------|
E|---------------------------------------------------------------------------|

e|---------------------------------------------------------------------------|
B|--10-7-10------------------------------------------------10\-----10-12\----|
G|----------9b10r9-7-9----7--7--------7---9-7-6-----7--/11-----/11-----------|
D|---------------------9--7--7--9-7-9---9-------9-9--------------------------|
A|---------------------------------------------------------------------------|
E|---------------------------------------------------------------------------|

e|---------------------------------------------------------------------------|
B|---/12--15b16-12-12----12-12-12----12-17-15h17-15----15--------------------|
G|--------------------14----------14----------------16----16-----------------|
D|---------------------------------------------------------------------------|
A|---------------------------------------------------------------------------|
E|---------------------------------------------------------------------------|

e|------------------------------17-------------------------------------------|
B|---17-15h17-15----15----17b19----19r17-15-17b19-15-------------------------|
G|---------------16----16----------------------------16-14-16----------------|
D|---------------------------------------------------------------------------|
A|---------------------------------------------------------------------------|
E|---------------------------------------------------------------------------|

Verse

e|-------------------------------------------------|
B|-------------------------------------------------|
G|-------------------------------------------------|
D|----------------------9-9-11-9-12-9-11-9---------| 4x
A|--9-9-11-9-12-9-11-9--7-7--7-7--7-7--7-7---------|
E|--7-7--7-7--7-7--7-7-----------------------------|

Chorus

e|---------------------------------------------------------------------------|
B|---------------------------------------------------------------------------|
G|---------------------------------------------------------------------------|
D|---------------------------------------------------------------------------|
A|--7--7-7-7-7-7-7-7-7-7-7-7-7--9--9-9-9-9-9-9-9-9-9-9-9-9-------------------|
E|--5--5-5-5-5-5-5-5-5-5-5-5-5--7--7-7-7-7-7-7-7-7-7-7-7-7-------------------|

e|---------------------------------------------------------------------------|
B|---------------------------------------------------------------------------|
G|---------------------------------------------------------------------------|
D|---------------------------------------------------------------------------|
A|---7--7-7-7-7-7-7-7-7-7-7-7-7---4-4-4-4-4-4-4-4-4-4-4-4-4-4-4-4------------|
E|---5--5-5-5-5-5-5-5-5-5-5-5-5---2-2-2-2-2-2-2-2-2-2-2-2-2-2-2-2------------|

Outro

e|-------------------------------------------------|
B|-------------------------------------------------|
G|-------------------------------------------------|
D|----------------------9-9-11-9-12-9-11-9---------| 3x
A|--9-9-11-9-12-9-11-9--7-7--7-7--7-7--7-7---------|
E|--7-7--7-7--7-7--7-7-----------------------------|

e|-------------------------------------------------|
B|-------------------------------------------------|
G|-------------------------------------------------|
D|----------------------9-9-11-9--7----------------| 
A|--9-9-11-9-12-9-11-9--7-7--7-7--7--9-------------|
E|--7-7--7-7--7-7--7-7-----------------10-9-7------|
            
Submit corrections

comments powered by Disqus
↑ Back to top | Hurriganes Tabs for Trippers Story. Lyrics for acoustic guitar and electric guitar. Tablatures and chords are parodies/interpretations of the original songs. You may use it for private study, scholarship, research or language learning purposes only