» » »

Roadrunner Tabs (ver.2)

Artists:  A B C D E F G H I J K L M N O P Q R S T U V W X Y Z # 

Roadrunner Tabs (ver.2)

Hurriganes
Rating:
0/5 (0 votes)

Hard to play? Try these video lessons and learn fast.
                Hurricanes - Roadrunner

e]----------------------]
h]----------------------]
g]----------------------]
d]--------------------2-]     <--{x4}
a]------------2-2-4-----]
e]--0-0-3-4-------------]
________________________


e]----------------------]
h]----------------------]
g]--------------------2-]     <--{x2}
d]------------2-2-4-----]
a]--0-0-3-4-------------]
e]----------------------]
_________________________

e]----------------------]
h]----------------------]
g]----------------------]
d]--------------------2-]     <--{x2}
a]------------2-2-4-----]
e]--0-0-3-4-------------]
________________________

e]--------------]
h]--------------]
g]-----------2--]
d]-4444-3-------]     <--{x1}
a]-2222-1-------]
e]--------------]
__________________

e]----------------------------]
h]----------------------------]
g]----------------------------]
d]--------------------2-------]     <--{x1}
a]------------2-2-4-----0-1-2-]
e]--0-0-3-4-------------------]
_______________________________
            
Hard to play? Try these video lessons and learn fast. | Correct




comments powered by Disqus
↑ Back to top | Tablatures and chords are parodies/interpretations of the original songs. You may use it for private study, scholarship, research or language learning purposes only