>
 >
Red House

Red House Guitar Tabs

Hurriganes - Red House chords, tabs, tablatures, lyrics

Guitar lessons | Add/correct | Request | Top 50 tabs Artists:  A B C D E F G H I J K L M N O P Q R S T U V W X Y Z 0-9

Red House Guitar Tabs – Hurriganes

CD, Sheet music, Poster

Do you like Red House? Share with your friends now
Tabs
Hurriganes- Red House

Intro
e|-------------------------------|
B|-------------------------------|
G|------7--9---------------------|
D|---9--7--9--7------------------|
A|---9--5--7--7------------------|
E|---7--------5------------------|

Verse
e|--------------------------------------|
B|--------------------------------------|
G|---7------7------7------7-------9b11--|
D|---7--9---7--9---7--9---7--9----------|
A|---5--9---5--9---5--9---5--9----------|
E|------7------7------7------7----------|

Chorus
e|---------------------------------------------------------------------------|
B|---------------------------------------------------------------------------|
G|---------------------------------------------------------------------------|
D|---9-9-11-9-9-9-11-9--9-9-11-9-9-9-11-9------------------------------------|
A|---7-7--7-7-7-7--7-7--7-7--7-7-7-7--7-7-9-9-11-9-9-9-11-9-9-11-9-9-9-11-9--|
E|----------------------------------------7-7--7-7-7-7--7-7-7--7-7-7-7--7-7--|

e|---------------------------------------------------------------------------|
B|---------------------------------------------------------------------------|
G|---------------------------------------------------------------------------|
D|---9-9-11-9-9-9-11-9--9-9-11-9-9-9-11-9------------------------------------|
A|---7-7--7-7-7-7--7-7--7-7--7-7-7-7--7-7-9-9-11-9-9-9-11-9-9-11-9-9-9-11-9--|
E|----------------------------------------7-7--7-7-7-7--7-7-7--7-7-7-7--7-7--|

Verse
e|-----------------------------10p9p7-----------|
B|------------------------------------10p9p7----|
G|---7------7------7------7------------------9-7|
D|---7--9---7--9---7--9---7--9------------------|
A|---5--9---5--9---5--9---5--9------------------|
E|------7------7------7------7------------------|

Chorus
e|---------------------------------------------------------------------------|
B|---------------------------------------------------------------------------|
G|---------------------------------------------------------------------------|
D|---9-9-11-9-9-9-11-9--9-9-11-9-9-9-11-9------------------------------------|
A|---7-7--7-7-7-7--7-7--7-7--7-7-7-7--7-7-9-9-11-9-9-9-11-9-9-11-9-9-9-11-9--|
E|----------------------------------------7-7--7-7-7-7--7-7-7--7-7-7-7--7-7--|

e|---------------------------------------------------------------------------|
B|---------------------------------------------------------------------------|
G|---------------------------------------------------------------------------|
D|---9-9-11-9-9-9-11-9--9-9-11-9-9-9-11-9------------------------------------|
A|---7-7--7-7-7-7--7-7--7-7--7-7-7-7--7-7-9-9-11-9-9-9-11-9-9-11-9-9-9-11-9--|
E|----------------------------------------7-7--7-7-7-7--7-7-7--7-7-7-7--7-7--|

Break
e|------------------------------------------------7---9----10----11---12-----|
B|---------------------------------------------------------------------------|
G|------4---4-----6b8r6-4---4---------4---4---4/8---9---10----11----13-------|
D|--4/6---6---6-4---------6---6-4-4/6---6---6--------------------------------|
A|---------------------------------------------------------------------------|
E|---------------------------------------------------------------------------|

Bridge
e|---------------------------------------------------------------------------|
B|---------------------------------------------------------------------------|
G|---------------------------------------------------------------------------|
D|---9-9-11-9-9-9-11-9--9-9-11-9-9-9-11-9------------------------------------|
A|---7-7--7-7-7-7--7-7--7-7--7-7-7-7--7-7-9-9-11-9-9-9-11-9-9-11-9-9-9-11-9--|
E|----------------------------------------7-7--7-7-7-7--7-7-7--7-7-7-7--7-7--|

e|---------------------------------------------------------------------------|
B|---------------------------------------------------------------------------|
G|---------------------------------------------------------------------------|
D|---9-9-11-9-9-9-11-9--9-9-11-9-9-9-11-9------------------------------------|
A|---7-7--7-7-7-7--7-7--7-7--7-7-7-7--7-7-9-9-11-9-9-9-11-9-9-11-9-9-9-11-9--|
E|----------------------------------------7-7--7-7-7-7--7-7-7--7-7-7-7--7-7--|

Solo
 D5 B5                       D5 B5                      D5 B5  
e|-----------------------------------7------7--------------------------------|
B|------19-19----------------------------------------------------------------|
G|------19-19-16----16-16----16---/8---9b11---9b11r9-7---------4-----6b8r6-4-|
D|---------------18-------18---------------------------9---4/6---6-4---------|
A|---------------------------------------------------------------------------|
E|---------------------------------------------------------------------------|

      D5 B5                               E5
e|-----------7-----7----7-----7-----7-----7-----7-----7-----7-----7-----7----|
B|---------------------------------------------------------------------------|
G|---4----/8---9b11-9b11--9b11--9b11--9b11--9b11--9b11--9b11--9b11--9b11-----|
D|-6---6---------------------------------------------------------------------|
A|---------------------------------------------------------------------------|
E|---------------------------------------------------------------------------|

   B5                        E5                          F#5
e|-/7-7-/7-7-/7-7-/7-7-/7-7--------------------------------------------------|
B|-/7-7-/7-7-/7-7-/7-7-/7-7-9b10-9-7--------------------------7-------7------|
G|--------------------------9b10-9-7---------7---9p7---7-9b11----9b11--------|
D|-----------------------------------9---7h9---9-----9-----------------------|
A|-------------------------------------9-------------------------------------|
E|---------------------------------------------------------------------------|

                      D5 B5
e|---------------------------------------------------------------------------|
B|-------7------7------------------------------------------------------------|
G|--9b11---9b11---9b11-7-----------------------------------------------------|
D|-----------------------9---------------------------------------------------|
A|---------------------------------------------------------------------------|
E|---------------------------------------------------------------------------|

Verse
e|-----------------------7-7-7-7-7-7-----------|
B|-----------------------7-7-7-7-7-7--9--------|
G|---7------7------7------------------9-7------|
D|---7--9---7--9---7--9-------------------9----|
A|---5--9---5--9---5--9------------------------|
E|------7------7------7------------------------|

Chorus
e|---------------------------------------------------------------------------|
B|---------------------------------------------------------------------------|
G|---------------------------------------------------------------------------|
D|---9-9-11-9-9-9-11-9--9-9-11-9-9-9-11-9------------------------------------|
A|---7-7--7-7-7-7--7-7--7-7--7-7-7-7--7-7-9-9-11-9-9-9-11-9-9-11-9-9-9-11-9--|
E|----------------------------------------7-7--7-7-7-7--7-7-7--7-7-7-7--7-7--|

e|---------------------------------------------------------------------------|
B|---------------------------------------------------------------------------|
G|---------------------------------------------------------------------------|
D|---9-9-11-9-9-9-11-9--9-9-11-9-9-9-11-9------------------------------------|
A|---7-7--7-7-7-7--7-7--7-7--7-7-7-7--7-7-9-9-11-9-9-9-11-9-9-11-9-9-9-11-9--|
E|----------------------------------------7-7--7-7-7-7--7-7-7--7-7-7-7--7-7--|

Break
e|---------------------------------7---9----10--11-----14---13---12---11-----|
B|---------------------------------------------------------------------------|
G|------4---4-----6b8r6-4---4---/8---9---10-----11---14---13---12---11-------|
D|--4/6---6---6-4---------6---6----------------------------------------------|
A|---------------------------------------------------------------------------|
E|---------------------------------------------------------------------------|

Bridge
e|---------------------------------------------------------------------------|
B|---------------------------------------------------------------------------|
G|---------------------------------------------------------------------------|
D|---9-9-11-9-9-9-11-9--9-9-11-9-9-9-11-9------------------------------------|
A|---7-7--7-7-7-7--7-7--7-7--7-7-7-7--7-7-9-9-11-9-9-9-11-9-9-11-9-9-9-11-9--|
E|----------------------------------------7-7--7-7-7-7--7-7-7--7-7-7-7--7-7--|

e|---------------------------------------------------------------------------|
B|---------------------------------------------------------------------------|
G|---------------------------------------------------------------------------|
D|---9-9-11-9-9-9-11-9--9-9-11-9-9-9-11-9-11-11-11-11-11-11-11-11-11-11-11---|
A|---7-7--7-7-7-7--7-7--7-7--7-7-7-7--7-7--9--9--9--9--9--9--9--9--9--9--9---|
E|---------------------------------------------------------------------------|

e|---------------------------------------------------------------------------|
B|---------------------------------------------------------------------------|
G|-------------------7--9---------7--9-----7---------------------------------|
D|--11-11-11-11---9--7--9--7---9--7--9--7--7--9------------------------------|
A|---9--9--9--9---9--5--7--7---9--5--7--7--5--9------------------------------|
E|----------------7--------5---7--------5-----7------------------------------|





Comments


Popular Hurriganes tabs & chords
Keep On Movin Chords
My Only One 1 Chords
An Awful Crime Tabs
Bop-she-bop Tabs
Crazy Days Tabs
Hot City Tabs
I Will Stay Intro Tabs
Keep On Knocking Tabs
Slippin And Slidin Tabs
I Will Stay Ukulele


Song lyrics



↑ Back to top | Tablatures and chords are parodies/interpretations of the original songs. You may use it for private study, scholarship, research or language learning purposes only
© 2014 AZChords.com Contact us | Privacy policy | DMCA | Add/correct tabs | Request tabs | Top 50 tabs