» » »

Oowee-oohla Tabs (ver.1)

Artists:  A B C D E F G H I J K L M N O P Q R S T U V W X Y Z # 

Oowee-oohla Tabs (ver.1)

Hurriganes
Rating:
0/5 (0 votes)

Hard to play? Try these video lessons and learn fast.
                Hurriganes-Oowee-Oohla
Roadrunner (1974)

Intro
e|---------------------------------------------------------------------------|
B|---------------------------------------------------------------------------|
G|-----0-1-2-1-0-------------------------------------------------------------|
D|-0-3-----------3-0---------------------------------------------------------|
A|-------------------0-0-0-0-0-0-0-0-----------------------------------------|
E|---------------------------------------------------------------------------|

Verse 1
e|---------------------------------------------------------------------------|
B|---------------------------------------------------------------------------|
G|--------2-2---2--------2-2---2-------2-2---2--------2-2---2----------------|
D|--0-0-4-----4----0-0-4-----4---0-0-4-----4----0-0-4-----4------------------|
A|---------------------------------------------------------------------------|
E|---------------------------------------------------------------------------|

Chorus
e|---------------------------------------------------------------------------|
B|---------------------------------------------------------------------------|
G|---------------------------------------------------------------------------|
D|---------------------------------------------------------------------------|
A|-5-5-5-5-5-5-5-7-7-7-7-7-7-5-5-5-5-5-5-7-----------------------------------|
E|-3-3-3-3-3-3-3-5-5-5-5-5-5-3-3-3-3-3-3-5-----------------------------------|

e|---------------------------------------------------------------------------|
B|---------------------------------------------------------------------------|
G|--------2-2---2--------2-2---2-------2-2---2--------2-2---2----------------|
D|--0-0-4-----4----0-0-4-----4---0-0-4-----4----0-0-4-----4------------------|
A|---------------------------------------------------------------------------|
E|---------------------------------------------------------------------------|

Verse 2
e|---------------------------------------------------------------------------|
B|---------------------------------------------------------------------------|
G|--------2-2---2--------2-2---2-------2-2---2--------2-2---2----------------|
D|--0-0-4-----4----0-0-4-----4---0-0-4-----4----0-0-4-----4------------------|
A|---------------------------------------------------------------------------|
E|---------------------------------------------------------------------------|

Chorus
e|---------------------------------------------------------------------------|
B|---------------------------------------------------------------------------|
G|---------------------------------------------------------------------------|
D|---------------------------------------------------------------------------|
A|-5-5-5-5-5-5-5-7-7-7-7-7-7-5-5-5-5-5-5-7-----------------------------------|
E|-3-3-3-3-3-3-3-5-5-5-5-5-5-3-3-3-3-3-3-5-----------------------------------|

e|---------------------------------------------------------------------------|
B|---------------------------------------------------------------------------|
G|--------2-2---2--------2-2---2-------2-2-4-2-5-5-5-5-5-5-5-5---------------|
D|--0-0-4-----4----0-0-4-----4---0-0-4---------------------------------------|
A|---------------------------------------------------------------------------|
E|---------------------------------------------------------------------------|

Bridge
e|---------------------------------------------------------------------------|
B|---------------------------------------------------------------------------|
G|---------------------------------------------------------------------------|
D|--------------------------7-7-7-7-7-7-7-7-7-7-7-7--------------------------|
A|--5-5-5-5-5-5-5-5-5-5-5-5-5-5-5-5-5-5-5-5-5-5-5-5-5-5-5-5-5-5-5-5-5-5-5-5--|
E|--3-3-3-3-3-3-3-3-3-3-3-3-------------------------3-3-3-3-3-3-3-3-3-3-3-3--|

e|---------------------------------------------------------------------------|
B|---------------------------------------------------------------------------|
G|---------------------------------------------------------------------------|
D|---------------------------------------------------------------------------|
A|--2-2-2-2-2-2-2-2----------------------------------------------------------|
E|--0-0-0-0-0-0-0-0-5-5-3-3-2-2-0-0------------------------------------------|

Chorus
e|---------------------------------------------------------------------------|
B|---------------------------------------------------------------------------|
G|--------2-2---2--------2-2---2-------2-2---2--------2-2---2----------------|
D|--0-0-4-----4----0-0-4-----4---0-0-4-----4----0-0-4-----4------------------|
A|---------------------------------------------------------------------------|
E|---------------------------------------------------------------------------|

e|---------------------------------------------------------------------------|
B|---------------------------------------------------------------------------|
G|---------------------------------------------------------------------------|
D|---------------------------------------------------------------------------|
A|-5-5-5-5-5-5-5-7-7-7-7-7-7-5-5-5-5-5-5-7-----------------------------------|
E|-3-3-3-3-3-3-3-5-5-5-5-5-5-3-3-3-3-3-3-5-----------------------------------|

e|---------------------------------------------------------------------------|
B|---------------------------------------------------------------------------|
G|--------2-2---2--------2-2---2-------2-2---2--------2-2---2----------------|
D|--0-0-4-----4----0-0-4-----4---0-0-4-----4----0-0-4-----4------------------|
A|---------------------------------------------------------------------------|
E|---------------------------------------------------------------------------|

Solo
e|--------------------------------10-13b14-10--------------------------------|
B|--------------------------10-13-------------10-----------------------------|
G|--------------------10-12----------------------12-10-10b12-----------------|
D|--------------10-12----------------------------------------12----10/12-----|
A|--------10-12-------------------------------------------------12-----------|
E|--10-13--------------------------------------------------------------------|

e|---------------------------------------------------------------------------|
B|------------------------------------------------------------10----10-------|
G|--10-12~-------------10----12p10----10-12b14-12b14-12b14-12----12----------|
D|---------12----10/12----12-------12----------------------------------------|
A|------------12-------------------------------------------------------------|
E|---------------------------------------------------------------------------|

    16x
e|-{13}-13\-------------------------------------------------10-13b14-10------|
B|-{12}-12\-------------------------------------------10-12------------------|
G|----------10----------10----10-10-------------10-11------------------------|
D|-------------12-10/12----12-------12----10-12------------------------------|
A|-------------------------------------12------------------------------------|
E|---------------------------------------------------------------------------|
   
e|--------10----10-13b14-10----10-10----------10-10----10-10-----------------|
B|--10h12----12-10----------12-------12-10-12-------12-------12\10-10-10-----|
G|---------------------------------------------------------------------------|
D|---------------------------------------------------------------------------|
A|---------------------------------------------------------------------------|
E|---------------------------------------------------------------------------|

e|----10----10----10-13b14\10----10-10-10------------------------------------|
B|-12----12----12-------------12----------12-10-12-13b14r13----10-12-10------|
G|----------------------------------------------------------12---------------|
D|---------------------------------------------------------------------------|
A|---------------------------------------------------------------------------|
E|---------------------------------------------------------------------------|

e|------------------------------10----10----10-13-13-13-13-13-13-13-13-------|
B|--13b14r13-10----10-10\-10/12----12----12----12-12-12-12-12-12-12-12-------|
G|--------------12-----------------------------------------------------------|
D|---------------------------------------------------------------------------|
A|---------------------------------------------------------------------------|
E|---------------------------------------------------------------------------|

    
e|--13\-10--10---------------------------------------------------------------|
B|--12\---12----------10-----------------------------------------------------|
G|--------------10/11----10b11----------10----12p10----10------------10-11---|
D|-----------------------------12-10/12----12-------12----12----10-12--------|
A|-----------------------------------------------------------12--------------|
E|---------------------------------------------------------------------------|

Verse 3
e|---------------------------------------------------------------------------|
B|---------------------------------------------------------------------------|
G|--------2-2---2--------2-2---2-------2-2---2--------2-2---2----------------|
D|--0-0-4-----4----0-0-4-----4---0-0-4-----4----0-0-4-----4------------------|
A|---------------------------------------------------------------------------|
E|---------------------------------------------------------------------------|

Chorus
e|---------------------------------------------------------------------------|
B|---------------------------------------------------------------------------|
G|---------------------------------------------------------------------------|
D|---------------------------------------------------------------------------|
A|-5-5-5-5-5-5-5-7-7-7-7-7-7-5-5-5-5-5-5-7-----------------------------------|
E|-3-3-3-3-3-3-3-5-5-5-5-5-5-3-3-3-3-3-3-5-----------------------------------|

e|---------------------------------------------------------------------------|
B|---------------------------------------------------------------------------|
G|--------2-2---2--------2-2---2-------2-2---2--------2-2---2----------------|
D|--0-0-4-----4----0-0-4-----4---0-0-4-----4----0-0-4-----4------------------|
A|---------------------------------------------------------------------------|
E|---------------------------------------------------------------------------|

Verse 4
e|---------------------------------------------------------------------------|
B|---------------------------------------------------------------------------|
G|--------2-2---2--------2-2---2-------2-2---2--------2-2---2----------------|
D|--0-0-4-----4----0-0-4-----4---0-0-4-----4----0-0-4-----4------------------|
A|---------------------------------------------------------------------------|
E|---------------------------------------------------------------------------|

Chorus
e|---------------------------------------------------------------------------|
B|---------------------------------------------------------------------------|
G|---------------------------------------------------------------------------|
D|---------------------------------------------------------------------------|
A|-5-5-5-5-5-5-5-7-7-7-7-7-7-5-5-5-5-5-5-7-----------------------------------|
E|-3-3-3-3-3-3-3-5-5-5-5-5-5-3-3-3-3-3-3-5-----------------------------------|

e|---------------------------------------------------------------------------|
B|---------------------------------------------------------------------------|
G|--------2-2---2--------2-2---2-------2-2-4-2-5-5-5-5-5-5-5-5---------------|
D|--0-0-4-----4----0-0-4-----4---0-0-4---------------------------------------|
A|---------------------------------------------------------------------------|
E|---------------------------------------------------------------------------|

Bridge
e|---------------------------------------------------------------------------|
B|---------------------------------------------------------------------------|
G|---------------------------------------------------------------------------|
D|--------------------------7-7-7-7-7-7-7-7-7-7-7-7--------------------------|
A|--5-5-5-5-5-5-5-5-5-5-5-5-5-5-5-5-5-5-5-5-5-5-5-5-5-5-5-5-5-5-5-5-5-5-5-5--|
E|--3-3-3-3-3-3-3-3-3-3-3-3-------------------------3-3-3-3-3-3-3-3-3-3-3-3--|

e|---------------------------------------------------------------------------|
B|---------------------------------------------------------------------------|
G|---------------------------------------------------------------------------|
D|---------------------------------------------------------------------------|
A|--2-2-2-2-2-2-2-2----------------------------------------------------------|
E|--0-0-0-0-0-0-0-0-5-5-3-3-2-2-0-0------------------------------------------|

Chorus
e|---------------------------------------------------------------------------|
B|---------------------------------------------------------------------------|
G|--------2-2---2--------2-2---2-------2-2---2--------2-2---2----------------|
D|--0-0-4-----4----0-0-4-----4---0-0-4-----4----0-0-4-----4------------------|
A|---------------------------------------------------------------------------|
E|---------------------------------------------------------------------------|

e|---------------------------------------------------------------------------|
B|---------------------------------------------------------------------------|
G|---------------------------------------------------------------------------|
D|------------------------------------------7--------------------------------|
A|-5-5-5-5-5-5-5-7-7-7-7-7-7-5-5-5-5-5-5-7--5--------------------------------|
E|-3-3-3-3-3-3-3-5-5-5-5-5-5-3-3-3-3-3-3-5-----------------------------------|

e|---------------------------------------------------------------------------|
B|---------------------------------------------------------------------------|
G|---------------------------------------------------------------------------|
D|------------------------------------------7--------------------------------|
A|-5-5-5-5-5-5-5-7-7-7-7-7-7-5-5-5-5-5-5-7--5--------------------------------|
E|-3-3-3-3-3-3-3-5-5-5-5-5-5-3-3-3-3-3-3-5-----------------------------------|
            
Hard to play? Try these video lessons and learn fast. | Correct




comments powered by Disqus
↑ Back to top | Tablatures and chords are parodies/interpretations of the original songs. You may use it for private study, scholarship, research or language learning purposes only