» » »

Hurriganes, My Sweet Lily Tabs (ver.1)

Artists:  A B C D E F G H I J K L M N O P Q R S T U V W X Y Z # 

My Sweet Lily Tabs (ver.1)

Hurriganes Tabs
Rating:
0/5 (0 votes)
Hard to play? Try these video lessons and learn fast.
                Hurriganes My sweet Lily
Tuning: standart

Intro
|------------------------------------------|
|--8---10--12~---10--12--10~----15b--12----|
|------------------------------------------|
|------------------------------------------|
|------------------------------------------|
|------------------------------------------|

|------------------------------------------|
|-10--------10------------10--12~--10-12-10|
|------12---------8----12------------------|
|------------------------------------------|
|------------------------------------------|
|------------------------------------------|

|------------------------------------------|
|-12--10------10-------12--10---8----------|
|----------12----12------------------------|
|------------------------------------------|
|------------------------------------------|
|------------------------------------------|

Verse
Place your fingers like G chord, but don't play
the chord, play it muted. Play it for whole verse.
|--3x----------3x----------3x----------3x------|
|--3x----------3x----------3x----------3x------|
|--4x---x------4x---x------4x----x-----4x---x--|
|--5x---x------5x---x------5x----x-----5x---x--|
|--5x---x------5x---x------5x----x-----5x---x--|
|--3x---x------3x---x------3x----x-----3x---x--|

Chorus
|------------------------------------------|
|--8-8-8-8-8-8-8-8-15-15-15-15-------------|
|--9-9-9-9-9-9-9-9-16-16-16-16-------------|
|------------------------------------------|
|------------------------------------------|
|------------------------------------------|

|------------------------------------------|
|-13-13-13-13--8-8-8-8-8-8-8-8-------------|
|-14-14-14-14--9-9-9-9-9-9-9-9-------------|
|------------------------------------------|
|------------------------------------------|
|------------------------------------------|

Solo only for 1 guitar
|------------------------------------------|
|-8--10--12---10--12--10-------------------|
|---------------------------12~------------|
|------------------------------------------| x3
|------------------------------------------|
|------------------------------------------|

|--------------------------------------------|
|--12--10--12--10--12--10--12--10--12--10-15b|
|--------------------------------------------|
|--------------------------------------------|
|--------------------------------------------|
|--------------------------------------------|

|-------------------------------------------|
|----------10----12----12p10----10-12p10p12-|
|-10---12--------------------12-------------|
|-------------------------------------------|
|-------------------------------------------|
|-------------------------------------------|

|-------------------------------------------|
|-10----10--------------------------8-------|
|----12----12p10/8~--10p8-----8--10---10-8~-|
|--------------------------10---------------|
|-------------------------------------------|
|-------------------------------------------|

|--------------------------------10---------|
|-------8~--10--8---10p8h10--10b----r-------|
|-8--10-------------------------------------|
|-------------------------------------------|
|-------------------------------------------|
|-------------------------------------------|

|-------------------------------------------|
|-10---8------------------------------------|
|----------10~-p9p8///----------2-----------|
|--------------------------0-0----0--2------|
|-------------------------------------------|
|-------------------------------------------|
            

comments powered by Disqus
↑ Back to top | Hurriganes Tabs for My Sweet Lily. Lyrics for acoustic guitar and electric guitar. Tablatures and chords are parodies/interpretations of the original songs. You may use it for private study, scholarship, research or language learning purposes only