» » »

Hurriganes, Lets Go Rocking Tonight Tabs (ver.1)

Artists:  A B C D E F G H I J K L M N O P Q R S T U V W X Y Z # 

Lets Go Rocking Tonight Tabs (ver.1)

Hurriganes Tabs
 Rating:
4/5 (4 votes)
Lets Go Rocking Tonight lessons Tabs too difficult? Try these video lessons and learn fast
                Hurriganes- Let's Go Rocking Tonight

Intro                                                   
e|---------------------------------------------------------------------------|
B|--2b3r2-0-2-0-----2b3r2-0-2-0-----2b3r2-0-2-0------------------------------|
G|--2b3r2-0-2-0-----2b3r2-0-2-0-----2b3r2-0-2-0-2----------------------------|
D|--------------2-0-------------2-0---------------0--------------------------|
A|---------------------------------------------------------------------------|
E|---------------------------------------------------------------------------|

  P.M            P.M           P.M           P.M
e|---------------------------------------------------------------------------|
B|---------------------------------------------------------------------------|
G|---------------------------------------------------------------------------|
D|------2-0-2-0-2-----2-0-2-0-2-----2-0-2-0-2-----2-0-2-0-2------------------|
A|---------------------------------------------------------------------------|
E|--0-0-----------0-0-----------0-0-----------0-0----------------------------|

Verse
  P.M            P.M           P.M           P.M
e|---------------------------------------------------------------------------|
B|---------------------------------------------------------------------------|
G|---------------------------------------------------------------------------|
D|------2-0-2-0-2-----2-0-2-0-2-----2-0-2-0-2-----2-0-2-0-2------------------|
A|---------------------------------------------------------------------------|
E|--0-0-----------0-0-----------0-0-----------0-0----------------------------|

   P.M            P.M           P.M           P.M
e|---------------------------------------------------------------------------|
B|---------------------------------------------------------------------------|
G|-------2-0-2-0-2-----2-0-2-0-2---------------------------------------------|
D|-----------------------------------2-0-2-0-2----2-0-2-0--------------------|
A|---0-0-----------0-0-------------------------------------------------------|
E|-------------------------------0-0-----------0-0---------------------------|

                     P.M
e|---------------------------------------------------------------------------|
B|---------------------------------------------------------------------------|
G|---4--4--3--2--------------------------------------------------------------|
D|---4--4--3--2-----------2-0-2-0-2-0----------------------------------------|
A|---2--2--1--0-----------------------2-2-/\---------------------------------|
E|---------------3b4--0------------------------------------------------------|

Verse
  P.M            P.M           P.M           P.M
e|---------------------------------------------------------------------------|
B|---------------------------------------------------------------------------|
G|---------------------------------------------------------------------------|
D|------2-0-2-0-2-----2-0-2-0-2-----2-0-2-0-2-----2-0-2-0-2------------------|
A|---------------------------------------------------------------------------|
E|--0-0-----------0-0-----------0-0-----------0-0----------------------------|

   P.M            P.M           P.M           P.M
e|---------------------------------------------------------------------------|
B|---------------------------------------------------------------------------|
G|-------2-0-2-0-2-----2-0-2-0-2---------------------------------------------|
D|-----------------------------------2-0-2-0-2----2-0-2-0--------------------|
A|---0-0-----------0-0-------------------------------------------------------|
E|-------------------------------0-0-----------0-0---------------------------|

                     P.M
e|---------------------------------------------------------------------------|
B|---------------------------------------------------------------------------|
G|---4--4--3--2--------------------------------------------------------------|
D|---4--4--3--2-----------2-0-2-0-2-0----------------------------------------|
A|---2--2--1--0-----------------------2-2------------------------------------|
E|---------------3b4--0-------------------3b4--------------------------------|

Chorus
  P.M            P.M           P.M           P.M
e|---------------------------------------------------------------------------|
B|---------------------------------------------------------------------------|
G|---------------------------------------------------------------------------|
D|------2-0-2-0-2-----2-0-2-0-2-----2-0-2-0-2-----2-0-2-0-2------------------|
A|---------------------------------------------------------------------------|
E|--0-0-----------0-0-----------0-0-----------0-0----------------------------|

   P.M            P.M           P.M           P.M
e|---------------------------------------------------------------------------|
B|---------------------------------------------------------------------------|
G|-------2-0-2-0-2-----2-0-2-0-2---------------------------------------------|
D|-----------------------------------2-0-2-0-2----2-0-2-0--------------------|
A|---0-0-----------0-0-------------------------------------------------------|
E|-------------------------------0-0-----------0-0---------------------------|

                     P.M
e|---------------------------------------------------------------------------|
B|---------------------------------------------------------------------------|
G|---4--4--3--2--------------------------------------------------------------|
D|---4--4--3--2-----------2-0-2-0-2-0----------------------------------------|
A|---2--2--1--0-----------------------2-2-/\---------------------------------|
E|---------------3b4--0------------------------------------------------------|

Solo
e|-----------------------------------------------------12-------12-------12--|
B|--14b15r14-14b15r14-14b15r14-14b15r14-12----12-----------------------------|
G|--14b15r14-14b15r14-14b15r14-14b15r14-12----12-14b16----14b16----14b16-----|
D|-----------------------------------------14--------------------------------|
A|---------------------------------------------------------------------------|
E|---------------------------------------------------------------------------|

             |--7x---|
e|--------12--------------------------------12-------12-------12-------12----|
B|-----------14pb15r14-12-14-12----------------------------------------------|
G|--14b16----14pb15r14-12-14-12----12-14b16----14b16----14b16----14b16-------|
D|------------------------------14-------------------------------------------|
A|---------------------------------------------------------------------------|
E|---------------------------------------------------------------------------|

e|--15b16-12---------------------------------------------------12------12------|
B|-----------12-15-------15----------------------------------------------------|
G|-----------------14b16^^^^r14p12----14-12------------12-14b16--14b16----14---| 
D|---------------------------------14-------14----12-14------------------------| 
A|---------------------------------------------14----------------------------14| 
E|-----------------------------------------------------------------------------| 

Verse
  P.M            P.M           P.M           P.M
e|---------------------------------------------------------------------------|
B|---------------------------------------------------------------------------|
G|---------------------------------------------------------------------------|
D|------2-0-2-0-2-----2-0-2-0-2-----2-0-2-0-2-----2-0-2-0-2------------------|
A|---------------------------------------------------------------------------|
E|--0-0-----------0-0-----------0-0-----------0-0----------------------------|

   P.M            P.M           P.M           P.M
e|---------------------------------------------------------------------------|
B|---------------------------------------------------------------------------|
G|-------2-0-2-0-2-----2-0-2-0-2---------------------------------------------|
D|-----------------------------------2-0-2-0-2----2-0-2-0--------------------|
A|---0-0-----------0-0-------------------------------------------------------|
E|-------------------------------0-0-----------0-0---------------------------|

                     P.M
e|---------------------------------------------------------------------------|
B|---------------------------------------------------------------------------|
G|---4--4--3--2--------------------------------------------------------------|
D|---4--4--3--2--2~-------2-0-2-0-2-0----------------------------------------|
A|---2--2--1--0-----------------------2-2-/\---------------------------------|
E|--------------------0------------------------------------------------------|

Chorus
  P.M            P.M           P.M           P.M
e|---------------------------------------------------------------------------|
B|---------------------------------------------------------------------------|
G|---------------------------------------------------------------------------|
D|------2-0-2-0-2-----2-0-2-0-2-----2-0-2-0-2-----2-0-2-0-2------------------|
A|---------------------------------------------------------------------------|
E|--0-0-----------0-0-----------0-0-----------0-0----------------------------|

   P.M            P.M           P.M           P.M
e|---------------------------------------------------------------------------|
B|---------------------------------------------------------------------------|
G|-------2-0-2-0-2-----2-0-2-0-2---------------------------------------------|
D|-----------------------------------2-0-2-0-2----2-0-2-0--------------------|
A|---0-0-----------0-0-------------------------------------------------------|
E|-------------------------------0-0-----------0-0---------------------------|

                     P.M
e|---------------------------------------------------------------------------|
B|---------------------------------------------------------------------------|
G|---4--4--3--2--------------------------------------------------------------|
D|---4--4--3--2-----------2-0-2-0-2-0----------------------------------------|
A|---2--2--1--0-----------------------2-2-/\---------------------------------|
E|---------------3b4--0------------------------------------------------------|

e|---------------------------------------------------------------------------|
B|---------------------------------------------------------------------------|
G|---------------------------------------------------------------------------|
D|------2-0-2-0-2-----2-0-2-0-2-----2-0-2-0-2-----2-0-2-0-2------------------|
A|---------------------------------------------------------------------------|
E|--0-0-----------0-0-----------0-0-----------0-0----------------------------|

   P.M            P.M           P.M           P.M
e|---------------------------------------------------------------------------|
B|---------------------------------------------------------------------------|
G|-------2-0-2-0-2-----2-0-2-0-2---------------------------------------------|
D|-----------------------------------2-0-2-0-2----2-0-2-0--------------------|
A|---0-0-----------0-0-------------------------------------------------------|
E|-------------------------------0-0-----------0-0---------------------------|

e|--------------------0--------------------------------0---------------------|
B|----------------------3-0--------------------------0---0-3-----------------|
G|--4-4-3-2--2b4r2-0--------2b4r2-0-----2b4-0----2b4---------0h2p0h2-\\\-----|
D|--4-4-3-2-------------------------2-0-------2----------------------\\\-----|
A|--2-2-1-0----------------------------------------------------------\\\-----|
E|---------------------------------------------------------------------------|


e|---------------------------------------------------------------------------|
B|---------------------------------------------------------------------------|
G|---2b4-0-2p0---0-2-0tr2---/-\----------------------------------------------|
D|-------------2------------/-\----------------------------------------------|
A|--------------------------/-\----------------------------------------------|
E|---------------------------------------------------------------------------|
            
Submit corrections

comments powered by Disqus
↑ Back to top | Hurriganes Tabs for Lets Go Rocking Tonight. Lyrics for acoustic guitar and electric guitar. Tablatures and chords are parodies/interpretations of the original songs. You may use it for private study, scholarship, research or language learning purposes only